Oops, an error
Loading. Please wait.

Permanent Vacation bass

version 2
version 2

Whole song

Interactive

592 views 3 this week
no commentswrite comment
1 2 3 4 5
x 4
add to favorites
×
Save as Personal and add changes to this tab that will be seen only by you. Learn more ›
×
You can save this tab as Personal to edit and correct it or add notes. All changes will be seen only by you. Learn more »
launch autoscroll
font size
0
reset
guitar tuner
edit
Autoscroll
slow
fast
+/-
esc
set tempo
stop
   Verse
F#|-----------------------------------------------------------------|
C#|-----------------------------------------------------------------|
G#|-----------------------------------------------------------------|
D#|-0---0-----------------------------------------------------------|
    1 e + a 2 e + a 3 e + a 4 e + a 1 e + a 2 e + a 3 e + a 4 e + a

F#|-----------------------------------------------------------------|
C#|---------------------------------------------7-------------------|
G#|---------------------------------5---5---------------------------|
D#|-0---0-------------------------------------------5---5-------5---|
    1 e + a 2 e + a 3 e + a 4 e + a 1 e + a 2 e + a 3 e + a 4 e + a

F#|-----------------------------------------------------------------|
C#|-----------------------------------------------------------------|
G#|-----------------------------------------------------------------|
D#|-0---0-----------------------------------------------------------|
    1 e + a 2 e + a 3 e + a 4 e + a 1 e + a 2 e + a 3 e + a 4 e + a

F#|-----------------------------------------------------------------|
C#|-----------------------------------------------7-----------------|
G#|---------------------------------5---5---------------4---7---7---|
D#|-0---0-------------------------------------------5-7-------------|
    1 e + a 2 e + a 3 e + a 4 e + a 1 e + a 2 e + a 3 e + a 4 e + a

F#|-----------------------------------------------------------------|
C#|-----------------------------------------------------------------|
G#|-7-----7-7-----7-7-----7-7-----7-5-----5-5-----5---------4-----4-|
D#|-------------------------------------------------5-----5---------|
    1 e + a 2 e + a 3 e + a 4 e + a 1 e + a 2 e + a 3 e + a 4 e + a

F#|-----------------------------------------------------------------|
C#|---------------------------------------------------------7-----7-|
G#|-7-----7-7-----7-7-----7-7-----7-5-----5-5-----5-----------------|
D#|-------------------------------------------------5-----5---------|
    1 e + a 2 e + a 3 e + a 4 e + a 1 e + a 2 e + a 3 e + a 4 e + a

F#|-----------------------------------------------------------------|
C#|-----------------------------------------------------------------|
G#|-7-----7-7-----7-7-----7-7-----7-5-----5-5-----5---------4-----4-|
D#|-------------------------------------------------5-----5---------|
    1 e + a 2 e + a 3 e + a 4 e + a 1 e + a 2 e + a 3 e + a 4 e + a

F#|-----------------------------------------------------------------|
C#|-----------------------------------------------------------------|
G#|-7-----7-7-----7-7-----7-7-----7---------------------------------|
D#|---------------------------------------4-4-4-4-4-4-4-4-4-4-4-4-4-|
    1 e + a 2 e + a 3 e + a 4 e + a 1 e + a 2 e + a 3 e + a 4 e + a

   Pre-Chorus
F#|-----------------------------------------------------------------|
C#|-----------------------------------------------------------------|
G#|-----------------7---7---7---7-7-4---4---4---4-4---------------7-|
D#|-5---5---5---5-5---------------------------------7---7---7---5---|
    1 + 2 + 3 + 4 + 1 + 2 + 3 + 4 + 1 + 2 + 3 + 4 + 1 + 2 + 3 + 4 +

F#|---------------------------------------------------------------------------------|
C#|---------------------------------------------------------------------------------|
G#|-----------------7---7---7---7-7-4---4---4---4-4-5---5---5---5-5-5---------------|
D#|-5---5---5---5-5-----------------------------------------------------------------|
    1 + 2 + 3 + 4 + 1 + 2 + 3 + 4 + 1 + 2 + 3 + 4 + 1 + 2 + 3 + 4 + 1 + 2 + 3 + 4 +

   Chorus
F#|-----------------------------------------------------------------|
C#|-----------------------------------------------------------------|
G#|-----------------7---7-----------5---5-5-5-5-5---5-5-5-5---5-5-5-|
D#|-0---0-0-0-0-0-----0---0---0-0-0---------------------------------|
    1 + 2 + 3 + 4 + 1 + 2 + 3 + 4 + 1 + 2 + 3 + 4 + 1 + 2 + 3 + 4 +

F#|-----------------------------------------------------------------|
C#|-----------------7---7-------------------------------------------|
G#|-0---0-0-0-0-0-----0---0---0-0---0---0-0-0-0-0---0---------------|
D#|-----------------------------------------------------------------|
    1 + 2 + 3 + 4 + 1 + 2 + 3 + 4 + 1 + 2 + 3 + 4 + 1 + 2 + 3 + 4 +
   
   Post-Chorus
F#|---------------------------------|
C#|-------------------------------7-|
G#|-----------------------------7---|
D#|---------------------------------|
    1 + 2 + 3 + 4 + 1 + 2 + 3 + 4 +

   Verse
F#|-----------------------------------------------------------------|
C#|-----------------------------------------------------------------|
G#|-7-------------------------------5-----5-5-----5---------4-----4-|
D#|-------------------------------------------------5-----5---------|
    1 e + a 2 e + a 3 e + a 4 e + a 1 e + a 2 e + a 3 e + a 4 e + a

F#|-----------------------------------------------------------------|
C#|-----------------------------------------------------------------|
G#|---------------------------------5-----5-5-----5---------4-----4-|
D#|-0---0-------------------------------------------5-----5---------|
    1 e + a 2 e + a 3 e + a 4 e + a 1 e + a 2 e + a 3 e + a 4 e + a

F#|-----------------------------------------------------------------|
C#|-----------------------------------------------------------------|
G#|---------------------------------5-----5-5-----5---------4-----4-|
D#|-0---0-------------------------------------------5-----5---------|
    1 e + a 2 e + a 3 e + a 4 e + a 1 e + a 2 e + a 3 e + a 4 e + a

F#|-----------------------------------------------------------------|
C#|-----------------------------------------------------------------|
G#|---------------------------------5---5---------5-----------------|
D#|-0---0-----------------------------------------------------------|
    1 e + a 2 e + a 3 e + a 4 e + a 1 e + a 2 e + a 3 e + a 4 e + a

F#|-----------------------------------------------------------------|
C#|-----------------------------------------------------------------|
G#|-7-----7-7-----7-7-----7-7-----7-5-----5-5-----5---------4-----4-|
D#|-------------------------------------------------5-----5---------|
    1 e + a 2 e + a 3 e + a 4 e + a 1 e + a 2 e + a 3 e + a 4 e + a

F#|-----------------------------------------------------------------|
C#|---------------------------------------------------------7-----7-|
G#|-7-----7-7-----7-7-----7-7-----7-5-----5-5-----5-----------------|
D#|-------------------------------------------------5-----5---------|
    1 e + a 2 e + a 3 e + a 4 e + a 1 e + a 2 e + a 3 e + a 4 e + a

F#|-----------------------------------------------------------------|
C#|-----------------------------------------------------------------|
G#|-7-----7-7-----7-7-----7-7-----7-5-----5-5-----5---------4-----4-|
D#|-------------------------------------------------5-----5---------|
    1 e + a 2 e + a 3 e + a 4 e + a 1 e + a 2 e + a 3 e + a 4 e + a

F#|-----------------------------------------------------------------|
C#|---------------------------------------6-6-6-6-6-6-6-6-6-6-6-6-6-|
G#|-7-----7-7-----7-7-----7-7-----7---------------------------------|
D#|-----------------------------------------------------------------|
    1 e + a 2 e + a 3 e + a 4 e + a 1 e + a 2 e + a 3 e + a 4 e + a

   Pre-Chorus
F#|-----------------------------------------------------------------|
C#|-----------------------------------------------------------------|
G#|-----------------7---7---7---7-7-4---4---4---4-4---------------7-|
D#|-5---5---5---5-5---------------------------------7---7---7---5---|
    1 + 2 + 3 + 4 + 1 + 2 + 3 + 4 + 1 + 2 + 3 + 4 + 1 + 2 + 3 + 4 +

F#|-----------------------------------------------------------------|
C#|-----------------------------------------------------------------|
G#|-----------------7---7---7---7-7-4---4---4---4-4-5---------------|
D#|-5---5---5---5-5-------------------------------------------------|
    1 + 2 + 3 + 4 + 1 + 2 + 3 + 4 + 1 + 2 + 3 + 4 + 1 + 2 + 3 + 4 +

   Chorus
F#|------------------------------------------------------------------|
C#|o-----------------------------------------------------------------|
G#|o-----------------7---7-----------5---5-5-5-5-5---5-5-5-5---5-5-5-|
D#|--0---0-0-0-0-0-----0---0---0-0-0---------------------------------|
     1 + 2 + 3 + 4 + 1 + 2 + 3 + 4 + 1 + 2 + 3 + 4 + 1 + 2 + 3 + 4 +

F#|------------------------------------------------------------------|
C#|-----------------7---7-------------------------------------------o|
G#|-0---0-0-0-0-0-----0---0---0-0---0---0-0-0-0-0---0---------------o|
D#|------------------------------------------------------------------|
    1 + 2 + 3 + 4 + 1 + 2 + 3 + 4 + 1 + 2 + 3 + 4 + 1 + 2 + 3 + 4 +

   Na Na...
F#|-----------------------------------------------------------------|
C#|-------------------------------7-------------------------------7-|
G#|-----------------5---5-0---0-7-------------------5---5-0---0-7---|
D#|-0---0---0---0-0-----------------0---0---0---0-0-----------------|
    1 + 2 + 3 + 4 + 1 + 2 + 3 + 4 + 1 + 2 + 3 + 4 + 1 + 2 + 3 + 4 +

F#|---------------------------------|
C#|---------------------------------|
G#|-7---------------------------/-\-|
D#|---------------------------------|
    1 + 2 + 3 + 4 + 1 + 2 + 3 + 4 +

Rest

   Congratulations
F#|-------------------------------------------------------------------|
C#|o-----------------------------------------------------------------o|
G#|o---------------------------------5---5-------5-------------------o|
D#|--0---0-------------------------------------------5---5-------5----|x4
     1 e + a 2 e + a 3 e + a 4 e + a 1 e + a 2 e + a 3 e + a 4 e + a

   Vocals Stop
F#|-----------------------------------------------------------------|
C#|-----------------------------------------------------------------|
G#|---------------------------------5---5-------5-------------------|
D#|-0---0-------------------------------------------5---5-------5---|
    1 e + a 2 e + a 3 e + a 4 e + a 1 e + a 2 e + a 3 e + a 4 e + a

F#|-----------------------------------------------------------------------------|
C#|-----------------------------------------------------------------------------|
G#|---------------------------------5-5-5-5-5-5-5-5-5-5-5-5---------------------|
D#|-0---0---------------------------------------------------7-7-7-7-7-7-7-\-----|
    1 e + a 2 e + a 3 e + a 4 e + a Trplt Trplt Trplt Trplt Trplt Trplt 3 + 4 +

   Chorus
F#|-----------------------------------------------------------------|
C#|-----------------------------------------------------------------|
G#|-----------------7---7-----------5---5-5-5-5-5---5-5-5-5---5-5-5-|
D#|-0---0-0-0-0-0-----0---0---0-0-0---------------------------------|
    1 + 2 + 3 + 4 + 1 + 2 + 3 + 4 + 1 + 2 + 3 + 4 + 1 + 2 + 3 + 4 +

F#|-----------------------------------------------------------------|
C#|-----------------7---7-------------------------------------------|
G#|-0---0-0-0-0-0-----0---0---0-0---0---0-0-0-0-0---0---------------|
D#|-----------------------------------------------------------------|
    1 + 2 + 3 + 4 + 1 + 2 + 3 + 4 + 1 + 2 + 3 + 4 + 1 + 2 + 3 + 4 +

F#|-----------------------------------------------------------------|
C#|-----------------------------------------------------------------|
G#|-----------------7---7-----------5---5-5-5-5-5---5-5-5-5---5-5-5-|
D#|-0---0-0-0-0-0-----0---0---0-0-0---------------------------------|
    1 + 2 + 3 + 4 + 1 + 2 + 3 + 4 + 1 + 2 + 3 + 4 + 1 + 2 + 3 + 4 +

F#|-----------------------------------------------------------------|
C#|-----------------7---7-------------------------------------------|
G#|-0---0-0-0-0-0-----0---0---0-0---0-0-----------------------------|
D#|-------------------------------------------------------------/-\-|
    1 + 2 + 3 + 4 + 1 + 2 + 3 + 4 + 1 + 2 + 3 + 4 + 1 + 2 + 3 + 4 +

   Na Na...
F#|-----------------------------------------------------------------|
C#|-------------------------------7-------------------------------7-|
G#|-----------------5---5-0---0-7-------------------5---5-0---0-7---|
D#|-0---0---0---0-0-----------------0---0---0---0-0-----------------|
    1 + 2 + 3 + 4 + 1 + 2 + 3 + 4 + 1 + 2 + 3 + 4 + 1 + 2 + 3 + 4 +

F#|-----------------------------------------------------------------|
C#|-------------------------------7---------------------------------|
G#|-----------------5---5-0---0-7-----------------------------------|
D#|-0---0---0---0-0-----------------0-0-----------------------------|
    1 + 2 + 3 + 4 + 1 + 2 + 3 + 4 + 1 + 2 + 3 + 4 + 1 + 2 + 3 + 4 + 

F#|-----------------------------------------------------------------|
C#|-----------------------------------------------------------------|
G#|-----------------------------------------------------------------|
D#|-0-0-------------------------------------------------------------|
    1 + 2 + 3 + 4 + 1 + 2 + 3 + 4 + 1 + 2 + 3 + 4 + 1 + 2 + 3 + 4 +

Tabbed By Jack Mills

            
            
Suggest correction
Creating personal tab
Creating personal tab
You can edit any tab online and save it as your Personal.

You can edit, replace or remove any tab part or add personal notes – all changes will be seen only by you.

Personal tabs can be accessed anytime from any device, even offline.
Learn more »
comments
print report bad tab
guest
You may want to rate the tab now too:
select rating
Wanna post a correction for this tab? Suggest correction