Oops, an error
Loading. Please wait.

Permanent Vacation tab

version 2
version 2

Whole song

Interactive

331 views 1 this week
no commentswrite comment
1 2 3 4 5
3 more votes to show rating
add to favorites
×
Save as Personal and add changes to this tab that will be seen only by you. Learn more ›
×
You can save this tab as Personal to edit and correct it or add notes. All changes will be seen only by you. Learn more »
launch autoscroll
font size
0
reset
how to read this tab
guitar tuner
edit
Autoscroll
slow
fast
+/-
esc
set tempo
stop
Author
Difficulty
TAB + CHORDS
Title: Permanent Vacation
Artist: 5 Seconds of Summer
Album: Sounds Good, Feels Good (2015)

There's already a tab out there of this song, and there are also chords, but here I've mixed both. Version 1
of the tab has a few extra things that I haven't written down, but that tab was a little chaotic to me. So 
here you go! For every part of the song, I've tabbed the riff/power chords, and then I've put the (power) 
chords over the lyrics. I've based it solely on the studio recording.

Guitar 1: Luke Hemmings
Guitar 2: Michael Clifford

 --------------
|INTRO + VERSES|
 --------------

Guitar 1:
e|-----------------------------------|
B|-----------------------------------|
G|------------------------------5-5--|
D|---------5-5-8-8----------6-6------|
A|--6-6--6-----------4-4--4----------|
E|-----------------------------------|

Guitar 2:
e|-----------------------------------|
B|-----------------------------------|
G|--8-8--------------6-6-------------|
D|--8-8--------------6-6----6-6------|
A|--6-6--------------4-4----6-6------|
E|--------------------------4-4------|
    Eb               Db     Ab

[Verse 1: Michael]
You say that I'm too complicated
Hung up and mis-educated
I say 9 to 5 is overrated
And we all fall down

[Verse 2: Michael]
Eb                    
I can't sleep 'cause my mind keeps racing
Eb                       Db          Ab
My chest hurts 'cause my heart keeps breaking
Eb                
I'm so numb and I can't stop shaking
       Eb  Db    Ab
And we all fall down

 ----------
|PRE-CHORUS|
 ----------

Both guitars:
e|---------------------------------------------------------------------------------------------|
B|---------------------------------------------------------------------------------------------|
G|-----------8-8-8-8---5-5-5-5---------------------8-8-8-8---5-5-5-5--6-6-6-6--6--x-x-x-x-x-x--|
D|--6-6-6-6--8-8-8-8---5-5-5-5--8-8-8-8---6-6-6-6--8-8-8-8---5-5-5-5--6-6-6-6--6--x-x-x-x-x-x--|
A|--6-6-6-6--6-6-6-6---3-3-3-3--8-8-8-8---6-6-6-6--6-6-6-6---3-3-3-3--4-4-4-4--4--x-x-x-x-x-x--|
E|--4-4-4-4---------------------6-6-6-6---4-4-4-4----------------------------------------------|
    Ab       Eb        Cm       Bb        Ab       Eb        Cm       Db     

[Pre-chorus: Luke]
Ab           Eb
Frustration, desperation
Cm                  Bb
You say I need some kind of medication
Ab         Eb    
Situation: no motivation
Cm           Db
Destination: permanent vacation

 ------
|CHORUS|
 ------

Both guitars:
e|-----------------------------------------------------------------------------|
B|-----------------------------------------------------------------------------|
G|--8-8-8-8-8-8-8-8--6-6-6-6-6-6-6-6-------------------------------------------|
D|--8-8-8-8-8-8-8-8--6-6-6-6-6-6-6-6--6-6-6-6-6-6-6-6-6-6-6-6-6-6-x-x-x-x-x-x--|
A|--6-6-6-6-6-6-6-6--4-4-4-4-4-4-4-4--6-6-6-6-6-6-6-6-6-6-6-6-6-6-x-x-x-x-x-x--|
E|------------------------------------4-4-4-4-4-4-4-4-4-4-4-4-4-4-x-x-x-x-x-x--|
    Eb               Db               Ab


[Chorus: All]
Eb
Hey, I'm doing fine
      Db
And I know I'm out of line
         Ab
So let's sing this one more time, it goes
Ab
Destination: permanent vacation

 -----------
|POST-CHORUS|
 -----------

Guitar 1:
e|--------------------|
B|--------------------|
G|--8-8-8-8--6-6-6-6--|
D|--8-8-8-8--6-6-6-6--|
A|--6-6-6-8--4-4-4-4--|
E|--------------------|
    Eb       Db    

[Post-chorus: Michael]
Eb     Db 
Na na, na-na na na naa

 ------
|VERSES| 
 ------

Guitar 1:
e|---------------------------------------|
B|---------------------------------------|
G|---------------------------------------|
D|---------5-5-8-8----------6-6-5-5------|
A|--6-6--6-----------4-4--4--------------|
E|---------------------------------------|

Guitar 2:
e|---------------------------------------|
B|---------------------------------------|
G|--8-8--------------6-6-----------------|
D|--8-8--------------6-6----6-6----------|
A|--6-6--------------4-4----6-6----------|
E|--------------------------4-4----------|
    Eb               Db     Ab

[Verse 3: Michael and Calum]
Eb    
Voices coming through the speaker
Eb         Db        Ab
They can't make me a believer
Eb            
I know I'm an under-achiever
          Eb     Db     Ab
And we're all so proud

[Verse 4: Calum]
Eb           
Watch out, I think we're going under
Eb                Db           Ab
Right now, you're just another number
Eb           
Get out, the system's in the gutter
Eb        Db     Ab 
And we're all so proud

 ----------
|PRE-CHORUS|
 ----------

Both guitars:
e|---------------------------------------------------------------------------------------------|
B|---------------------------------------------------------------------------------------------|
G|-----------8-8-8-8---5-5-5-5---------------------8-8-8-8---5-5-5-5--6-6-6-6--6--x-x-x-x-x-x--|
D|--6-6-6-6--8-8-8-8---5-5-5-5--8-8-8-8---6-6-6-6--8-8-8-8---5-5-5-5--6-6-6-6--6--x-x-x-x-x-x--|
A|--6-6-6-6--6-6-6-6---3-3-3-3--8-8-8-8---6-6-6-6--6-6-6-6---3-3-3-3--4-4-4-4--4--x-x-x-x-x-x--|
E|--4-4-4-4---------------------6-6-6-6---4-4-4-4----------------------------------------------|
    Ab       Eb        Cm       Bb        Ab       Eb        Cm       Db     
 
[Pre-chorus: Luke]
Ab           Eb
Frustration, desperation
Cm                  Bb
You say I need some kind of medication
Ab         Eb    
Situation: no motivation
Cm           Db
Destination: permanent vacation

 -----------
|CHORUS (2x)|
 -----------

Both guitars:
e|-----------------------------------------------------------------------------|
B|-----------------------------------------------------------------------------|
G|--8-8-8-8-8-8-8-8--6-6-6-6-6-6-6-6-------------------------------------------|
D|--8-8-8-8-8-8-8-8--6-6-6-6-6-6-6-6--6-6-6-6-6-6-6-6-6-6-6-6-6-6-x-x-x-x-x-x--|
A|--6-6-6-6-6-6-6-6--4-4-4-4-4-4-4-4--6-6-6-6-6-6-6-6-6-6-6-6-6-6-x-x-x-x-x-x--|
E|------------------------------------4-4-4-4-4-4-4-4-4-4-4-4-4-4-x-x-x-x-x-x--|
    Eb               Db               Ab


[Chorus: All]
Eb
Hey, I'm doing fine
      Db
And I know I'm out of line
         Ab
So let's sing this one more time, it goes
Ab
Destination: permanent vacation

Eb
Hey, I'm doing fine
      Db
And I know I'm out of line
         Ab
So let's sing this one more time, it goes
Ab
Destination: permanent vacation

 -----------
|POST-CHORUS|
 -----------

Both guitars:
e|--------------------------------------------|
B|--------------------------------------------|
G|--8-8-8-8--6-6-------8-8-8-8--6-6-------8/--|
D|--8-8-8-8--6-6-6-6---8-8-8-8--6-6-6-6---8/--|
A|--6-6-6-6--4-4-6-6---6-6-6-6--4-4-6-6---6/--|
E|---------------4-4----------------4-4-------|
      Eb     Db  Ab      Eb     Db  Ab    Eb 


[Post-chorus: All]
Eb        Db       Ab
Na na, na-na na na na 
Eb      Db       Ab     Eb
Na na, na-na na na na

 ------
|BRIDGE|
 ------

During the first part of the bridge, which Michael sings, there is no guitar or bass, just drums. The second 
part is exactly like the verses: guitar 1 plays the riff while guitar 2 plays the power chords. I think the 
idea of the riff with the power chords over it is clear, so I won't display the tab a third time.

[Bridge: Michael]
Congratulations, your imitations
Are taking over the radio stations
Corporations, calculations
We're the voice of the new generation

[Bridge: All]
Eb              Db       Ab 
Congratulations, your imitations
Eb                  Db    Ab
Are taking over the radio stations
Eb            Db   Ab
Corporations, calculations
Eb                     Db       Ab
We're the voice of the new generation

 ---------
|INTERLUDE|
 ---------

Guitar 1:
e|----------------------------------------------------------------------|
B|----------------------------------------------------------------------|
G|------------------------------5-5-------------------------------------|
D|---------5-5-8-8----------6-6−------------5-5-8-8---------------------|
A|--6-6--6-----------4-4--4-----------6-6--6-----------4-4-4-4----------|
E|--------------------------------------------------------------6-6-6\--|
                                                                   
Guitar 2:
e|----------------------------------------------------------------------|
B|----------------------------------------------------------------------|
G|--8-8--------------6-6--------------8-8--------------6-6-6-6----------|
D|--8-8--------------6-6----6-6-------8-8--------------6-6-6-6--8-8-8\--|
A|--6-6--------------4-4----6-6-------6-6--------------4-4-4-4--8-8-8\--|
E|--------------------------4-4---------------------------------6-6-6\--|
    Eb               Db     Ab        Eb               Db       Bb    

 -----------
|CHORUS (2x)|
 -----------

Both guitars:
e|-----------------------------------------------------------------------------|
B|-----------------------------------------------------------------------------|
G|--8-8-8-8-8-8-8-8--6-6-6-6-6-6-6-6-------------------------------------------|
D|--8-8-8-8-8-8-8-8--6-6-6-6-6-6-6-6--6-6-6-6-6-6-6-6-6-6-6-6-6-6-x-x-x-x-x-x--|
A|--6-6-6-6-6-6-6-6--4-4-4-4-4-4-4-4--6-6-6-6-6-6-6-6-6-6-6-6-6-6-x-x-x-x-x-x--|
E|------------------------------------4-4-4-4-4-4-4-4-4-4-4-4-4-4-x-x-x-x-x-x--|
    Eb               Db               Ab

[Chorus: All]
Eb
Hey, I'm doing fine
      Db
And I know I'm out of line
         Ab
So let's sing this one more time, it goes
Ab
Destination: permanent vacation

Eb
Hey, I'm doing fine
      Db
And I know I'm out of line
         Ab
So let's sing this one more time, it goes
[Luke:]
Ab
Destination: permanent vacation

 -----------
|POST-CHORUS|
 -----------

Both guitars:
e|------------------------------------------------------------------------|
B|------------------------------------------------------------------------|
G|--8-8-8-8--6-6-------8-8-8-8--6-6-------8-8-8-8--6-6------8-8/−−--8-8−--|
D|--8-8-8-8--6-6-6-6---8-8-8-8--6-6-6-6---8-8-8-8--6-6-6-6--8-8/−−--8-8---|
A|--6-6-6-6--4-4-6-6---6-6-6-6--4-4-6-6---6-6-6-6--4-4-6-6--6-6/−−−−6-6−--|
E|---------------4-4----------------4-4----------------4-4----------------|
      Eb     Db  Ab      Eb     Db  Ab    Eb       Db  Ab   Eb


[Post-chorus: All]
Eb     Db    Ab
Na na, na na na naa 
Eb     Db    Ab     
Na na, na na na naa
Eb     Db    Ab
Na na, na na na naa

[Luke:]
Eb                               Eb 
Destination: permanent vacation


--−−−−−−−−−−−−−−-
| /  slide up   |
| \  slide down |
| x  mute       |
−−−−−−−−−−−−−−−--
Suggest correction
Creating personal tab
Creating personal tab
You can edit any tab online and save it as your Personal.

You can edit, replace or remove any tab part or add personal notes – all changes will be seen only by you.

Personal tabs can be accessed anytime from any device, even offline.
Learn more »
Give kudos to tab author, rate the tab!
1 2 3 4 5
comments
print report bad tab
guest
You may want to rate the tab now too:
select rating
Wanna post a correction for this tab? Suggest correction