Oops, an error
Loading. Please wait.

Safety Pin bass

4,288 views 3 this week
1 commentread comment
1 2 3 4 5
x 9
add to favorites
×
Save as Personal and add changes to this tab that will be seen only by you. Learn more ›
×
You can save this tab as Personal to edit and correct it or add notes. All changes will be seen only by you. Learn more »
launch autoscroll
font size
0
reset
guitar tuner
edit
Autoscroll
slow
fast
+/-
esc
set tempo
stop
Author
Difficulty
  Verse 0:12
G|-------------------------------------------------------------------|
D|o-----------------------------------------------------------------o|
A|o-----------------------------------------------------------------o|
E|--0----------------------------------------------------------------|
    1 + 2 + 3 + 4 + 1 + 2 + 3 + 4 + 1 + 2 + 3 + 4 + 1 + 2 + 3 + 4 +

  Pre-Chorus 0:24
G|-----------------------------------------------------------------|
D|-----------------------------------------------------------------|
A|---------------------------------------7-------------------------|
E|-0-----4-----5-------------------5-----------7-------------------|
   1 + 2 + 3 + 4 + 1 + 2 + 3 + 4 + 1 + 2 + 3 + 4 + 1 + 2 + 3 + 4 +

G|-----------------------------------------------------------------|
D|-----------------------------------------------------------------|
A|-----------------------------------------------------------------|
E|(2)-----------------------------(5)------------------------------|
   1 + 2 + 3 + 4 + 1 + 2 + 3 + 4 + 1 + 2 + 3 + 4 + 1 + 2 + 3 + 4 +

  Chorus 0:37
G|-----------------------------------------------------------------|
D|-----------------------------------------------------------------|
A|-----------------------------------------------------------------|
E|-0-----0-0-0-0---7-----7-7-7-7---9-----9-9-9-9---5---5---5-5-5-7-|
   1 + 2 + 3 + 4 + 1 + 2 + 3 + 4 + 1 + 2 + 3 + 4 + 1 + 2 + 3 + 4 +

G|-----------------------------------------------------------------|
D|-------------------------------------------------------/-7-7-7---|
A|-----------------------------------------------------------------|
E|-0-----0-0-0-0---7-----7-7-7-7---9-----9-9-9-9---5---5-----------|
   1 + 2 + 3 + 4 + 1 + 2 + 3 + 4 + 1 + 2 + 3 + 4 + 1 + 2 + 3 + 4 +

G|-----------------------------------------------------------------|
D|-------------------------------------------/-7-----7-7-7-7-6---6-|
A|-------------------------------------------------------------9---|
E|-9-9-9-----------7-7-7-----------5-----5-5-5---------------------|
   1 + 2 + 3 + 4 + 1 + 2 + 3 + 4 + 1 + 2 + 3 + 4 + 1 + 2 + 3 + 4 +

G|---------------------------------------------------------------------------------|
D|---------------------------------------------------------------------------------|
A|-7---7-7---7-7---6---6-6---6-6---4---4-4---4-7-----------------------------------|
E|-------------------------------------------------5---------------5---------------|
   1 + 2 + 3 + 4 + 1 + 2 + 3 + 4 + 1 + 2 + 3 + 4 + 1 + 2 + 3 + 4 + 1 + 2 + 3 + 4 +

  Verse 1:03
G|-------------------------------------------------------------------|
D|o-----------------------------------------------------------------o|
A|o-----------------------------------------------------------------o|
E|--0----------------------------------------------------------------|
    1 + 2 + 3 + 4 + 1 + 2 + 3 + 4 + 1 + 2 + 3 + 4 + 1 + 2 + 3 + 4 +

  Pre-Chorus 1:15
G|-----------------------------------------------------------------|
D|-----6-6-----6-6---------------------4-4-----4-4---------------4-|
A|-4-4-----4-4---------7-7-----7-7-7-7-----7-7---------------------|
E|-----------------5-5-----5-5---------------------7-7-7-7-7-7-7---|
   1 + 2 + 3 + 4 + 1 + 2 + 3 + 4 + 1 + 2 + 3 + 4 + 1 + 2 + 3 + 4 +

G|-----------------------------------------------------------------|
D|-----------------------------------------------------------------|
A|---------------/-9-----------------------------------------------|
E|-2-------------------------------5-------------------------------|
   1 + 2 + 3 + 4 + 1 + 2 + 3 + 4 + 1 + 2 + 3 + 4 + 1 + 2 + 3 + 4 +

  Chorus 1:28
G|-----------------------------------------------------------------|
D|-----------------------------------------------------------------|
A|-----------------------------------------------------------------|
E|-0-----0-0-0-0---7-----7-7-7-7---9-----9-9-9-9---5---5---5-5-5-7-|
   1 + 2 + 3 + 4 + 1 + 2 + 3 + 4 + 1 + 2 + 3 + 4 + 1 + 2 + 3 + 4 +

G|-----------------------------------------------------------------|
D|-------------------------------------------------------/-7-7-7---|
A|-----------------------------------------------------------------|
E|-0-----0-0-0-0---7-----7-7-7-7---9-----9-9-9-9---5---5-----------|
   1 + 2 + 3 + 4 + 1 + 2 + 3 + 4 + 1 + 2 + 3 + 4 + 1 + 2 + 3 + 4 +

G|-----------------------------------------------------------------|
D|-------------------------------------------/-7-----7-7-7-7-6---6-|
A|-------------------------------------------------------------9---|
E|-9-9-9-----------7-7-7-----------5-----5-5-5---------------------|
   1 + 2 + 3 + 4 + 1 + 2 + 3 + 4 + 1 + 2 + 3 + 4 + 1 + 2 + 3 + 4 +

G|-----------------------------------------------------------------|
D|-----------------------------------------------------------------|
A|-7---7-7---7-7---6---6-6---6-6---4---4-4---4-7-------------------|
E|-------------------------------------------------5---------------|
   1 + 2 + 3 + 4 + 1 + 2 + 3 + 4 + 1 + 2 + 3 + 4 + 1 + 2 + 3 + 4 +

  Bridge 1:52
G|-----------------------------------------------------------------|
D|-------------------------------------------------4-4-4-4-4-------|
A|-4-4-4-4-4-4-4-4-----------------7-7-7-7-7-7-7-7-------------4-7-|
E|-----------------5-5-5-5-5-5-5-5---------------------------7-----|
   1 + 2 + 3 + 4 + 1 + 2 + 3 + 4 + 1 + 2 + 3 + 4 + 1 + 2 + 3 + 4 +

G|-----------------------------------------------------------------|
D|---------------------------------------------------4-4---4-4-----|
A|-4-4-4-4-4-4-4-4-----------------7-7-7-7-7-7-7-7-----------------|
E|-----------------5-5-5-5-5-5-5-5---------------------------------|
   1 + 2 + 3 + 4 + 1 + 2 + 3 + 4 + 1 + 2 + 3 + 4 + 1 + 2 + 3 + 4 +

G|-----------------------------------------------------------------|
D|-------------------------------------------------4-4-4-4-4-4-4-4-|
A|-4-4-4-4-4-4-4-4-----------------7-7-7-7-7-7-7-7-----------------|
E|-----------------5-5-5-5-5-5-5-5---------------------------------|
   1 + 2 + 3 + 4 + 1 + 2 + 3 + 4 + 1 + 2 + 3 + 4 + 1 + 2 + 3 + 4 +

G|-----------------------------------------------------------------|
D|---------------------------------------------------4-4---4-4-----|
A|-4-4-4-4-4-4-4-4-----------------7-7-7-7-7-7-7-7-----------------|
E|-----------------5-5-5-5-5-5-5-5---------------------------------|
   1 + 2 + 3 + 4 + 1 + 2 + 3 + 4 + 1 + 2 + 3 + 4 + 1 + 2 + 3 + 4 +

  2:17
G|-----------------------------------------------------------------|
D|-------------------------7-6-------------------------------------|
A|-------6-7-9-7-6-------------9-7-7-7-7-7-7-7-7-7-----------------|
E|-9-9-9-----------5-5-5-5-------------------------2-2-2-2-2-2-2-2-|
   1 + 2 + 3 + 4 + 1 + 2 + 3 + 4 + 1 + 2 + 3 + 4 + 1 + 2 + 3 + 4 +

G|-----------------------------------------------------------------|
D|-------------------------7-6-------------------------------------|
A|-------6-7-9-7-6-------------9-7---------------------------------|
E|-9-9-9-----------5-5-5-5---------0-0-0-0-0-0-0-0-2-2-2-2-2-2-2-2-|
   1 + 2 + 3 + 4 + 1 + 2 + 3 + 4 + 1 + 2 + 3 + 4 + 1 + 2 + 3 + 4 +

  This Time... Maybe This Time
G|------------------------------------------------------------------|
D|------------------------------------------------------------------|
A|-----------------------------3-/-15---------------------------\-\-|
E|------------------------------------------------------------------|
   1 + 2 + 3 + 4 + 1 + 2 + 3 + 4 + 1  + 2 + 3 + 4 + 1 + 2 + 3 + 4 +

  Chorus 2:36
G|-----------------------------------------------------------------|
D|-----------------------------------------------------------------|
A|-----------------------------------------------------------------|
E|-0-----0-0-0-0---7-----7-7-7-7---9-----9-9-9-9---5---5---5-5-5-7-|
   1 + 2 + 3 + 4 + 1 + 2 + 3 + 4 + 1 + 2 + 3 + 4 + 1 + 2 + 3 + 4 +

G|-----------------------------------------------------------------|
D|-------------------------------------------------------/-7-7-7---|
A|-----------------------------------------------------------------|
E|-0-----0-0-0-0---7-----7-7-7-7---9-----9-9-9-9---5---5-----------|
   1 + 2 + 3 + 4 + 1 + 2 + 3 + 4 + 1 + 2 + 3 + 4 + 1 + 2 + 3 + 4 +

G|-------------------------------------------------------------------|
D|---------------------------------------------/-7-----7-7-7-7-6---6-|
A|-------/-16-------------/-14-----------------------------------9---|
E|-9-9-9------------7-7-7------------5-----5-5-5---------------------|
   1 + 2 + 3  + 4 + 1 + 2 + 3  + 4 + 1 + 2 + 3 + 4 + 1 + 2 + 3 + 4 +

G|-----------------------------------------------------------------|
D|-----------------------------------------------/-7-7-7-7-7-7-7-7-|
A|-7---7-7---7-7---6---6-6---6-6---4---4-4---4-7-------------------|
E|-----------------------------------------------------------------|
   1 + 2 + 3 + 4 + 1 + 2 + 3 + 4 + 1 + 2 + 3 + 4 + 1 + 2 + 3 + 4 +

  Outro 3:01
G|-----------------------------------------------------------------|
D|-----9-------9-----------------------6-------6-------------4-----|
A|-7-7---7-7-7---7-----9-------9---4-4---4-4-4---4-----7---7---7-6-|
E|-----------------7-7---7-7-7---7-----------------5-5---5---------|
   1 + 2 + 3 + 4 + 1 + 2 + 3 + 4 + 1 + 2 + 3 + 4 + 1 + 2 + 3 + 4 +

G|-----9---------6-------------------------------------------------|
D|-------------9---------------------------------------------------|
A|-7-7---7-7-7-----6-6-6-6---6-------------------------------------|
E|-------------------------9-----7-9-9-9-9-9-9-9-9-5---------------|
   1 + 2 + 3 + 4 + 1 + 2 + 3 + 4 + 1 + 2 + 3 + 4 + 1 + 2 + 3 + 4 +

Tabbed By Jack Mills

            
            
Suggest correction
Creating personal tab
Creating personal tab
You can edit any tab online and save it as your Personal.

You can edit, replace or remove any tab part or add personal notes – all changes will be seen only by you.

Personal tabs can be accessed anytime from any device, even offline.
Learn more »
comments
print report bad tab
1 comment total.
+1 reply
BestRivenNA 10 Oct 31, 2015 11:20 AM

"advanced level"

guest
You may want to rate the tab now too:
select rating
Wanna post a correction for this tab? Suggest correction