Oops, an error
Loading. Please wait.

Safety Pin tab

2,897 views 18 this week
no commentswrite comment
1 2 3 4 5
x 3
add to favorites
×
Save as Personal and add changes to this tab that will be seen only by you. Learn more ›
×
You can save this tab as Personal to edit and correct it or add notes. All changes will be seen only by you. Learn more »
launch autoscroll
font size
0
reset
how to read this tab
guitar tuner
edit
Autoscroll
slow
fast
+/-
esc
set tempo
stop
-----------------------------------------------------------------------------
                 SAFETY PIN - 5 Seconds Of Summer
-----------------------------------------------------------------------------
Tuning: Drop D (DADGBe)

Check out my guitar cover on YouTube!: https://www.youtube.com/watch?v=3zjslxGNqTA

Guitar 1 - Luke Hemmings
Guitar 2 - Michael Clifford

Intro/verse:

Guitar 1                                                                    V lower volume V
e|---------------------------2x-|-----------|---------------------------2x-|------------------|
B|--------------------999-7-----|---------.-|--------------------999-7-----|--------999-7--x8-|
G|-999999999999999999-----9--x8-|-(pause)-9-|-999999999999999999-----9--x8-|-9--x16-----------|
D|------------------------------|-----------|------------------------------|------------------|
A|------------------------------|---------7-|------------------------------|------------------|
D|------------------------------|-----------|------------------------------|------------------|
      ***   ******    *** *                   ******************             *
Guitar 2 (electronic part thing transcribed to guitar)                      V clean guitar V
e|-----------------------------------------------------------------2x-|-----------|-4~---5~---|
B|-----------------------------------.--------------------------------|-----------|-5~---5~---|
G|-------------.------.----.----.----9~-----------.-------.---------.-|-----------|-6~---5~---|
D|----9-9-9-11~----11~--14~--13~---------9-9-9-11~-----11~--14~--13~--|-(silence)-|-----------|
A|--------------------------------------------------------------------|-----------|-----------|
D|--------------------------------------------------------------------|-----------|-----------|

Chorus:

Guitar 1
e|-0-----0-----0-----0-----|-------------------0~0~0~0~0000-0~-0~-0-0~-0~-0-0~-0~-0-0~-0~-0-0~~~~-|
B|-0-----0-----0-----0-----|-----.--------.----0~0~0~0~0000-0~-0~-0-0~-0~-0-0~-0~-0-0~-0~-0-0~~~~-|
G|-9-----4-----6-----2-----|-6-6-6----4-4-4----9~9~9~9~9999-9~-9~-9-8~-8~-8-6~-6~-6-2~-2~-2-2~~~~-|
D|-9--x8-4--x8-6--x8-2--x8-|-6-6-6----4-4-4----9~9~9~9~9999-9~-9~-9-9~-9~-9-6~-6~-6-2~-2~-2-2~~~~-|
A|-7-----2-----4-----0-----|-4-4-4----2-2-2----7~7~7~7~7777-7~-7~-7-6~-6~-6-4~-4~-4-0~-0~-0-0~~~~-|
D|-------------------------|----------------------------------------------------------------------|

Guitar 2
e|-------------------------|----------------------------------------------------------------------------|
B|-------------------------|--------.-----------.-------------------------------------------------------|
G|-9-----4-----6-----2-----|-13-13-13----11-11-11----9~9~9~9~9999-9~-9~-9-4~-4~-4-6~-6~-6-2~-2~-2-2~~~~-|
D|-9--x8-4--x8-6--x8-2--x8-|-------------------------9~9~9~9~9999-9~-9~-9-4~-4~-4-6~-6~-6-2~-2~-2-2~~~~-|
A|-7-----2-----4-----0-----|-11-11-11-----9--9--9----7~7~7~7~7777-7~-7~-7-6~-6~-6-4~-4~-4-0~-0~-0-0~~~~-|
D|-------------------------|----------------------------------------------------------------------------|
                            ^elevens not ones^
Verse 2:

Guitar 1                                                                                       
e|---------------------------2x-|-------------------------------------------------------------------------|
B|--------------------999-7-----|-----------------------------------------------------%-------------------|
G|-999999999999999999-----9--x8-|-----6-6-----6-6-----2-2-----2-2-----9-9-----9-9-----4-4-----4-4---------|
D|------------------------------|-----6-6-----6-6-----2-2-----2-2-----9-9-----9-9-----4-4-----4-4-4~---7~-|
A|------------------------------|-4-4-4-4-4-4-4-4-0-0-0-0-0-0-0-0-7-7-7-7-7-7-7-7-2-2-2-2-2-2-2-2-4----7~-|
D|------------------------------|-----------------------------------------------------------------4~---7~-|
   ****************** *** *       * *     * *     * *     * *     * *     * *     * *     * *    
Guitar 2 (electronic part thing transcribed to guitar)                 V comes in at the % sign in guitar 1
e|-----------------------------------------------------------------2x-|----------------------------|
B|-----------------------------------.--------------------------------|------------.---.-----------|
G|-------------.------.----.----.----9~-----------.-------.----.----.-|-----------13--13-----------|
D|----9-9-9-11~----11~--14~--13~---------9-9-9-11~-----11~--14~--13~--|-(silence)--------4~---7~---|
A|--------------------------------------------------------------------|-----------11--11-4~---7~---|
D|--------------------------------------------------------------------|------------------4~---7~---|

Repeat:
Chorus - skip last chord

Bridge:

Guitar 1 - pause after this line
e|----------------------|--------------------------------------------------------------2x-|
B|--------------.-----.-|-----------------------------------------------------------------|
G|(silence)-9-9-9---9-9-|-------6---------------2-----------------------------------------|
D|----------------------|-6-----6----6----2-----2-----2---------2---------------4---------|
A|----------7-7-7---7-7-|-4-4-4-4-4-4-4-4-0-0-0-0-0-0-0-0-2-----2-----2---4-----4-----4---|
D|----------------------|---------------------------------2-2-2-2-2-2-2-2-4-4-4-4-4-4-4-4-|
                          * *   * *   *   * *   * *   *     * *   * *   *   * *   * *   *
Guitar 1 con'td
e|-------------------------------------------------|
B|-------------------------------------------------|
G|-6-----2-----------------6-----2-----------------|
D|-6--x8-2--x8-2-----4-----6--x8-2--x8-------------|
A|-4-----0-----2--x8-4--x8-4-----0-----2--x8-4--x8-|
D|-------------2-----4-----------------2-----4-----|
                                       *     *
Guitar 2
e|-------------------------2x-|-------0-----------------------0-----------------|-----------|
B|------------------.-------.-|-5-----2-----5-----7-----5-----2-----------------|-----------|
G|-----------14-14-14---14-14-|-6-----2-----4-----6-----6-----2-----------------|-----------|
D|-(silence)------------------|-6--x8-2--x8-2--x8-4-----6--x8-2--x8-------------|-(silence)-|
A|-----------12-12-12---12-12-|-4-----0-----2-----4--x8-4-----0-----2--x8-4--x8-|-----------|
D|----------------------------|-------------2-----4-----------------2-----4-----|-----------|
                                                                    *     *
Repeat: Chorus - skip last chord

Outro - stop after this line:

Guitar 1                                          Guitar 2
e|-0-----0-----0-----0-----0-----0-----0-----0~--||-----------------------------------------------|
B|-0-----0-----0-----0-----0-----0-----0-----0~--||---------------------------------------------.-|
G|-9--x8-8--x8-6--x8-2--x8-9--x8-8--x8-6--x8-2~--||-9-----4-----6-----2-----9-----4-----6-----2~--|
D|-9-----9-----6-----2-----9-----9-----6-----2~--||-9--x8-4--x8-6--x8-2--x8-9--x8-4--x8-6--x8-2~--|
A|-7-----6-----4-----0-----7-----6-----4-----0~--||-7-----6-----4-----0-----7-----6-----4-----0~--|
D|---------------------------------------------.-||-----------------------------------------------|
________________________________________________________________
~ - hold note
* - palm mute
. - release (stop) note from ringing out after playing it
Suggest correction
Creating personal tab
Creating personal tab
You can edit any tab online and save it as your Personal.

You can edit, replace or remove any tab part or add personal notes – all changes will be seen only by you.

Personal tabs can be accessed anytime from any device, even offline.
Learn more »
Give kudos to tab author, rate the tab!
1 2 3 4 5
comments
print report bad tab
guest
You may want to rate the tab now too:
select rating
Wanna post a correction for this tab? Suggest correction