Oops, an error
Loading. Please wait.
We have Chord Pro version of Shes Kinda Hot.
It's the closest thing you can get to the original song and it has interactive parts. Check out the tab »
×

Shes Kinda Hot intro tab

version 1
version 1

Intro

Whole song

  • This is the complete song, and it is all correct.

Interactive

46,684 views 108 this week
9 commentsread comments
1 2 3 4 5
x 161
add to favorites
×
Save as Personal and add changes to this tab that will be seen only by you. Learn more ›
×
You can save this tab as Personal to edit and correct it or add notes. All changes will be seen only by you. Learn more »
launch autoscroll
font size
0
reset
how to read this tab
guitar tuner
edit
Autoscroll
slow
fast
+/-
esc
set tempo
stop
Author
She's Kinda Hot - 5 Seconds of Summer


[Intro/Verse]

e|------------------------------------|
B|------------------------------------|
G|------------------------------------|
D|------------------------------------|
A|------2-4---2-----------2-4---2-----|
E|--0-4---------4-2---0-4--------4-2--| (x4)

e|-----------------------------------|
B|-----------------------------------|
G|-----------------------------------|
D|------2-4---2-----------2-4--2-----|
A|----4---------4-2-----4--------4-2-|
E|--5------------------5-------------|

e|-----------------------------------|
B|-----------------------------------|
G|-----------------------------------|
D|-----------------------------------|
A|------2-4---2-----------2-4---2----|
E|--0-4---------4-2---0-4--------4-2-|

            
            
Suggest correction
Creating personal tab
Creating personal tab
You can edit any tab online and save it as your Personal.

You can edit, replace or remove any tab part or add personal notes – all changes will be seen only by you.

Personal tabs can be accessed anytime from any device, even offline.
Learn more »
comments
print report bad tab
9 comments total. Showing first comments.
+14 reply
X_1d_fandom_xx 57 Jul 17, 2015 12:34 PM

This is fab. you can also play the string open on A instead of a 5 on E

0 reply
darc_louise6 22 Jul 19, 2015 11:41 PM

So easy but fun! :)

guest
You may want to rate the tab now too:
select rating
Wanna post a correction for this tab? Suggest correction