Oops, an error
Loading. Please wait.
We have Chord Pro version of Shes Kinda Hot.
It's the closest thing you can get to the original song and it has interactive parts. Check out the tab »
×

Shes Kinda Hot solo tab

version 1
version 1

Solo

Whole song

  • This is the complete song, and it is all correct.

Interactive

4,867 views 6 this week
no commentswrite comment
1 2 3 4 5
x 4
add to favorites
×
Save as Personal and add changes to this tab that will be seen only by you. Learn more ›
×
You can save this tab as Personal to edit and correct it or add notes. All changes will be seen only by you. Learn more »
launch autoscroll
font size
0
reset
how to read this tab
guitar tuner
edit
Autoscroll
slow
fast
+/-
esc
set tempo
stop
Hey everyone! So I was watching Michael at a live concert and saw that his solo was different to the one
that I learnt (I just like to play the songs how the boys do I suppose haha) but I'll include both tabs.
I am only 13 and this is my first tab done by ear so sorry for mistakes!
The first tab I think is slightly easier than the second one.
Any problems/mistakes please let me know, thank you.

 SOLO VERSION 1. OCTAVE POWER CHORDS
e|---------------------------------------------------------------------------|
B|---------------------------------------------------------------------------|
G|----14---18--16--14---9---11--13--16---------------------------------------|
D|----x----x----x---x---x---x---x---x-----------------------------------X2---|
A|----12---16--14--12---7---9---11--14---------------------------------------|
E|---------------------------------------------------------------------------|
       X8    X3  X3  X1  X8  X3 X3 X1

 SOLO VERSION 2. (How I think Mikey plays it) this is a lot faster and I struggle with it 
 aha but I think it sounds better and I'm slowly coming up to speed.
e|----------------------------------------------------1. ---19----------2. ---------------|
B|------------------------------19---21----------------------x-------------/--------------|
G|---14--18--16---14------21----x----x----------------------16-------------/--------------|
D|---x----x---x---x--------x----16---18------------------------------------/--------------|
A|---12--16--14---12------19--------------------------------------------------------------|
E|----------------------------------------------------------------------------------------|
      X8  X3  X3  X1       X8    X3   X3                 X1

 2ND. PART OF THE SOLO
e|-------------------------------------------------------------------------------|
B|-------------------------------------------------------------------------------|
G|----14--13-----14--13-----14---16---14--13----------14--13----14h16------------|
D|-------------14----------14----------------------14----------------------------|
A|--------------------------------------------------------16---------------------|
E|-------------------------------------------------------------------------------|

e|----------------------------|
B|----------------------------|
G|-----16---------------------|
D|-----14---------------------|
A|----------------------------|
E|-----X8---------------------|


I can’t decide whether to put in the little extra he did after the solo but I gathered that
there's so many ways of adding cool little solo riffs you might as well make up your own.

Thanks!



So I had another look at it and I found that my version was too high and off key so I've given it
another shot and maybe it's close enough but I guess if anyone reads this they can just choose 
between the three!

e|--------------------------------------------------------|
B|--------------------------------------------------------|
G|----14---18--16--14-----------------21------------------|
D|----x----x----x---x---14--16---17---x--------------X2---|
A|----12---16--14--12---x---x----x----19------------------|
E|----------------------12--14---16-----------------------|


There are numerous ways of doing this solo, I'm just giving it my best shot and of course,
Michael uses a WahWah Pedal! Just have a play around and see which version suits you I guess :-)

            
            
Suggest correction
Creating personal tab
Creating personal tab
You can edit any tab online and save it as your Personal.

You can edit, replace or remove any tab part or add personal notes – all changes will be seen only by you.

Personal tabs can be accessed anytime from any device, even offline.
Learn more »
comments
print report bad tab
guest
You may want to rate the tab now too:
select rating
Wanna post a correction for this tab? Suggest correction