Oops, an error
Loading. Please wait.
We have Chord Pro version of Shes Kinda Hot.
It's the closest thing you can get to the original song and it has interactive parts. Check out the tab »
×

Shes Kinda Hot tab

version 2
version 2

Whole song

  • This is the complete song, and it is all correct.

Interactive

1,324 views 12 this week
no commentswrite comment
1 2 3 4 5
3 more votes to show rating
add to favorites
×
Save as Personal and add changes to this tab that will be seen only by you. Learn more ›
×
You can save this tab as Personal to edit and correct it or add notes. All changes will be seen only by you. Learn more »
launch autoscroll
font size
0
reset
how to read this tab
guitar tuner
edit
Autoscroll
slow
fast
+/-
esc
set tempo
stop
Author
About this tab version
This is the complete song, and it is all correct. Was this info helpful? Yes No
[Intro]

e|---------------------------------------------------------------------------|
B|---------------------------------------------------------------------------|
G|---------------------------------------------------------------------------|
D|---------------------------------------------------------------------------|
A|-----2-4-2-------2-4-2---------2-4-2---------2-4-2-------------------------|
E|-0-4-------4-2-0-------4-2-0-4-------4-2-0-4-------4-2---------------------|


[Verse 1]

e|---------------------------------------------------------------------------|
B|---------------------------------------------------------------------------|
G|---------------------------------------------------------------------------|
D|---------------------------------------------------------------------------|
A|-----2-4-2---------2-4-2---------2-4-2-------4-2-4-------------------------|
E|-0-4-------4-2-0-4-------4-2-0-4-------4-2-0-------4-2---------------------|

e|---------------------------------------------------------------------------|
B|---------------------------------------------------------------------------|
G|---------------------------------------------------------------------------|
D|-----2-4-2---------2-4-2---------------------------------------------------|
A|-0-4-------4-2-0-4-------4-2-----2-4-2---------2-4-2-----------------------|
E|-----------------------------0-4-------4-2-0-4-------4-2-------------------|


[Verse 2]

e|---------------------------------------------------------------------------|
B|---------------------------------------------------------------------------|
G|---------------------------------------------------------------------------|
D|---------------------------------------------------------------------------|
A|-----2-4-2---------2-4-2---------2-4-2---------2-4-2-----------------------|
E|-0-4-------4-2-0-4-------4-2-0-4-------4-2-0-4-------4-2-------------------|

e|---------------------------------------------------------------------------|
B|---------------------------------------------------------------------------|
G|---------------------------------------------------------------------------|
D|-----2-4-2---------2-4-2---------------------------------------------------|
A|-0-4-------4-2-0-4-------4-2-----2-4-2---------2-4-2-----------------------|
E|-----------------------------0-4-------4-2-0-4-------4-2-------------------|

e|---------------------------------------------------------------------------|
B|---------------------------------------------------------------------------|
G|---------------------------------------------------------------------------|
D|-----4-6-4---------2-4-2---------------------------------------------------|
A|-1-6-------6-4-0-4-------4-2-----2-4-2---------2-4-2-----------------------|
E|----------------------------0-4-------4-2-0-4-------4-2--------------------|


e|---------------------------------------------------------------------------|
B|---------------------------------------------------------------------------|
G|---------------------------------------------------------------------------|
D|---------------------------------------------------------------------------|
A|-7-7-7-7-7-7-7-6-5-5-5-5-5-5-9-7-------------------------------------------|
E|-9-9-9-9-9-9-9-8-7-7-7-7-7-7-----------------------------------------------|


[Verses 3]

e|---------------------------------------------------------------------------|
B|---------------------------------------------------------------------------|
G|---------------------------------------------------------------------------|
D|---------------------------------------------------------------------------|
A|-----2-4-2---------2-4-2---------2-4-2---------2-4-2-----------------------|
E|-0-4-------4-2-0-4-------4-2-0-4-------4-2-0-4-------4-2-------------------|

e|---------------------------------------------------------------------------|
B|---------------------------------------------------------------------------|
G|---------------------------------------------------------------------------|
D|-----2-4-2---------2-4-2---------------------------------------------------|
A|-0-4-------4-2-0-4-------4-2-----2-4-2---------2-4-2-----------------------|
E|-----------------------------0-4-------4-2-0-4-------4-2-------------------|


[Chorus]

e|---------------------------------------------------------------------------|
B|---------------------------------------------------------------------------|
G|---------------------------------------------------------------------------|
D|-9-9-9-9-9-9-9-9-9-9-9-9-9-9-9-8/9-9-9-9-9-9-9-9---------------------------|
A|-7-7-7-7-7-7-7-7-7-7-7-7-7-7-7-6/7-7-7-7-7-7-7-7-7-7-7-7-7-7-7-7-6/7-7-7-7-|
E|-------------------------------------------------5-5-5-5-5-5-5-5-4/5-5-5-5-|


e|---------------------------------------------------------------------------|
B|---------------------------------------------------------------------------|
G|---------------------------------------------------------------------------|
D|-8/9-9-9-8/9-9-9-8/9-9-9-8/9-9-9-------------------------------------------|
A|-6/7-7-7-6/7-7-7-6/7-7-7-6/7-7-7-9-9-9-9-9-9-9-9-8-7-7-7-7-7-7-7-----------|
E|---------------------------------7-7-7-7-7-7-7-7-6-5-5-5-5-5-5-5-----------|

e|---------------------------------------------------------------------------|
B|---------------------------------------------------------------------------|
G|---------------------------------------------------------------------------|
D|-8/9-9-9-8/9-9-9-----------------------------------------------------------| 
A|-6/8-8-8-6/8-8-8-9-9-9-9-9-9-----------------------------------------------|
E|-----------------7-7-7-7-7-7-----------------------------------------------|

e|---------------------------------------------------------------------------|
B|---------------------------------------------------------------------------|
G|-13-13-13-13-13-13-13-13-13-13-13-13-13-13-16-16-16------------------------|
D|---------------------------------------------------------------------------|  x2
A|-11-11-11-11-11-11-11-11-11-11-11-11-11-11-14-14-14------------------------|
E|---------------------------------------------------------------------------|

e|---------------------------------------------------------------------------|
B|---------------------------------------------------------------------------|
G|-14-14-14-14-14-14-14-14-14-14-14-14-14-14-16-16-16------------------------|
D|---------------------------------------------------------------------------| 
A|-12-12-12-12-12-12-12-12-12-12-12-12-12-12-14-14-14------------------------|
E|---------------------------------------------------------------------------|

e|---------------------------------------------------------------------------|
B|---------------------------------------------------------------------------|
G|-13-13-13-13-13-13-13-13-13-13-13-13-13-13-11-11-11-11-11-11-11-10---------|
D|---------------------------------------------------------------------------|
A|-11-11-11-11-11-11-11-11-11-11-11-11-11-11--9--9--9--9--9--9--9--8---------|
E|---------------------------------------------------------------------------|


e|---------------------------------------------------------------------------|
B|---------------------------------------------------------------------------|
G|-9-9-9-9-9-9-9-9-9-11-11-11-11-11-11-11-11-11------------------------------|
D|---------------------------------------------------------------------------| 
A|-7-7-7-7-7-7-7-7-7-9--9--9--9--9--9--9--9--9-------------------------------|
E|---------------------------------------------------------------------------|


[Solo]

e|-----------------------------------------------------------------------------|
B|-----------------------------------------------------------------------------|
G|-14-18-16-14-9-11-16-14-18-16-14-9-11-13-12----13-12----13-15-13-12----------|
D|--------------------------------------------13-------13-------------13-15-13-|
A|-12-16-14-12-7-9--14-12-16-14-12-7-9-----------------------------------------|
E|-----------------------------------------------------------------------------|

e|---------------|
B|-9-9-9-9-9-9---|
G|---------------|
D|---------------|
A|---------------|
E|---------------|


[Verses 4]

e|---------------------------------------------------------------------------|
B|---------------------------------------------------------------------------|
G|---------------------------------------------------------------------------|
D|---------------------------------------------------------------------------|
A|-----2-4-2---------2-4-2---------2-4-2---------2-4-2-----------------------|
E|-0-4-------4-2-0-4-------4-2-0-4-------4-2-0-4-------4-2-------------------|

e|---------------------------------------------------------------------------|
B|---------------------------------------------------------------------------|
G|---------------------------------------------------------------------------|
D|-----2-4-2---------2-4-2---------------------------------------------------|
A|-0-4-------4-2-0-4-------4-2-----2-4-2---------2-4-2-----------------------|
E|-----------------------------0-4-------4-2-0-4-------4-2-------------------|


[Chorus]

e||---------------------------------------------------------------------------|
B||---------------------------------------------------------------------------|
G||---------------------------------------------------------------------------|
D||-9-9-9-9-9-9-9-9-9-9-9-9-9-9-9-8/9-9-9-9-9-9-9-9---------------------------|
A||-7-7-7-7-7-7-7-7-7-7-7-7-7-7-7-6/7-7-7-7-7-7-7-7-7-7-7-7-7-7-7-7-6/7-7-7-7-|
E||-------------------------------------------------5-5-5-5-5-5-5-5-4/5-5-5-5-|

e|---------------------------------------------------------------------------|
B|---------------------------------------------------------------------------|
G|---------------------------------------------------------------------------|
D|-8/9-9-9-8/9-9-9-8/9-9-9-8/9-9-9-------------------------------------------|
A|-6/7-7-7-6/7-7-7-6/7-7-7-6/7-7-7-9-9-9-9-9-9-9-9-8-7-7-7-7-7-7-7-----------|
E|---------------------------------7-7-7-7-7-7-7-7-6-5-5-5-5-5-5-5-----------|

e|---------------------------------------------------------------------------|
B|---------------------------------------------------------------------------|
G|---------------------------------------------------------------------------|
D|-8/9-9-9-8/9-9-9-----------------------------------------------------------| 
A|-6/8-8-8-6/8-8-8-9-9-9-9-9-9-----------------------------------------------|
E|-----------------7-7-7-7-7-7-----------------------------------------------|

e|---------------------------------------------------------------------------|
B|---------------------------------------------------------------------------|
G|-13-13-13-13-13-13-13-13-13-13-13-13-13-13-16-16-16------------------------|
D|---------------------------------------------------------------------------|  x2
A|-11-11-11-11-11-11-11-11-11-11-11-11-11-11-14-14-14------------------------|
E|---------------------------------------------------------------------------|

e|---------------------------------------------------------------------------|
B|---------------------------------------------------------------------------|
G|-14-14-14-14-14-14-14-14-14-14-14-14-14-14-16-16-16------------------------|
D|---------------------------------------------------------------------------| 
A|-12-12-12-12-12-12-12-12-12-12-12-12-12-12-14-14-14------------------------|
E|---------------------------------------------------------------------------|

e|---------------------------------------------------------------------------|
B|---------------------------------------------------------------------------|
G|-13-13-13-13-13-13-13-13-13-13-13-13-13-13-11-11-11-11-11-11-11-10---------|
D|---------------------------------------------------------------------------|
A|-11-11-11-11-11-11-11-11-11-11-11-11-11-11--9--9--9--9--9--9--9--8---------|
E|---------------------------------------------------------------------------|

                                                                           x2
e|--------------------------------------------------------------------------||
B|--------------------------------------------------------------------------||
G|-9-9-9-9-9-9-9-9-9-11-11-11-11-11-11-11-11-11-----------------------------||
D|--------------------------------------------------------------------------|| 
A|-7-7-7-7-7-7-7-7-7-9--9--9--9--9--9--9--9--9------------------------------||
E|--------------------------------------------------------------------------||


[Outro]


e|---------------------------------------------------------------------------|
B|---------------------------------------------------------------------------|
G|---------------------------------------------------------------------------|
D|---------------------------------------------------------------------------|
A|-----2-4-2-------2-4-2---------2-4-2---------2-4-2-------------------------|
E|-0-4-------4-2-0-------4-2-0-4-------4-2-0-4-------4-2---------------------|


************************************

 /   Slide up

************************************

            
            
Suggest correction
Creating personal tab
Creating personal tab
You can edit any tab online and save it as your Personal.

You can edit, replace or remove any tab part or add personal notes – all changes will be seen only by you.

Personal tabs can be accessed anytime from any device, even offline.
Learn more »
Give kudos to tab author, rate the tab!
1 2 3 4 5
comments
print report bad tab
guest
You may want to rate the tab now too:
select rating
Wanna post a correction for this tab? Suggest correction