Oops, an error
Loading. Please wait.

The Girl Who Cried Wolf tab

version 1
version 1

Whole song

Interactive

1,489 views 3 this week
1 commentread comment
1 2 3 4 5
x 6
add to favorites
×
Save as Personal and add changes to this tab that will be seen only by you. Learn more ›
×
You can save this tab as Personal to edit and correct it or add notes. All changes will be seen only by you. Learn more »
launch autoscroll
font size
0
reset
how to read this tab
guitar tuner
edit
Autoscroll
slow
fast
+/-
esc
set tempo
stop
Author
Difficulty
The Girl Who Cried Wolf – 5 Seconds of Summer 5SOS

To match the acoustic guitar sound on the recording you’ll need to play some open strings with some 
high position chords. If you downtune your guitar by a tone you’ll be able to get the sound! Takes a 
few minutes but it’ll be worth it!

Chords are named as what you think it would be if you were playing in standard tuning.

VERSE:  00:17

Rhythm for each chord     D   D - U  _  U - D - U

    E    E/D# C#sus Bsus  Asus  Asus   Am    Am

d|--0-----0-----0-----0-----0-----0-----0-----0--|
A|--0-----0-----0-----0-----0-----0-----1-----1--|
F|--9-----8-----6-----4-----2-----2-----2-----2--|     x2
C|--9-----9-----6-----4-----2-----2-----2-----2--|
G|--7-----7-----4-----2-----0-----0-----0-----0--|
D|--0-----0-----x-----x-----x-----x-----x-----x--|


PRE CHORUS:

Rhythm two strums on the first two chords then  D,   D,   U, U, D  DU on Asus

   C#sus  G#sus Asus

d|--0-----0-----0---|
A|--0-----0-----0---|
F|--6-----0-----6---|   x2
C|--6-----6-----7---|
G|--4-----6-----7---|
D|--0-----4-----5---|


CHORUS:

    E   Asus  F#sus Bsus

d|--0-----0-----0-----0--|
A|--0-----0-----0-----0--|
F|--9-----6-----x-----4--|    x2   and finish with open E
C|--9-----7-----4-----4--|    
G|--7-----7-----4-----2--|
D|--0-----5-----2-----x--|


 
POST CHORUS: (Music)

    E    E/D#  Asus  Asus  C#sus G#sus Asus  Asus

d|--0-----0-----0-----0-----0-----0-----0-----0--|
A|--0-----0-----0-----0-----0-----0-----0-----0--|
F|--9-----9-----6-----6-----6-----x-----6-----6--|     x2
C|--9-----9-----7-----7-----6-----6-----7-----7--|
G|--7-----6-----7-----7-----4-----6-----7-----7--|
D|--0-----0-----5-----5-----x-----4-----5-----5--|


[Verse 2 and Chorus]

BRIDGE: 02:32  and fade out


   Asus  Bsus C#sus   E - E/D#

d|--0-----0-----0-----0---0---|
A|--0-----0-----0-----0---0---|
F|--2-----4-----6-----9---8---|    
C|--2-----4-----6-----9---9---|
G|--0-----2-----4-----7---7---|
D|--0-----x-----x-----0---0---|


_____________________________________________________________________
For Robyn, Vanessa, JJ and all the 5SOS fans at OLSHCK and BCR Sydney

Suggest correction
Creating personal tab
Creating personal tab
You can edit any tab online and save it as your Personal.

You can edit, replace or remove any tab part or add personal notes – all changes will be seen only by you.

Personal tabs can be accessed anytime from any device, even offline.
Learn more »
comments
print report bad tab
1 comment total.
0 reply
abiroseb 26 May 06, 2016 01:22 PM

love this

guest
You may want to rate the tab now too:
select rating
Wanna post a correction for this tab? Suggest correction