Oops, an error
Loading. Please wait.

Too Late bass

592 views 3 this week
no commentswrite comment
1 2 3 4 5
x 5
add to favorites
×
Save as Personal and add changes to this tab that will be seen only by you. Learn more ›
×
You can save this tab as Personal to edit and correct it or add notes. All changes will be seen only by you. Learn more »
launch autoscroll
font size
0
reset
guitar tuner
edit
Autoscroll
slow
fast
+/-
esc
set tempo
stop
Author
-------------------------------------------------------------------------------
                TOO LATE - 5 Seconds of Summer
-------------------------------------------------------------------------------
Tabbed by: angela hanton


[INTRO]

G|---------------------------------------------------------------------------|
D|---------------------------------------------------------------------------|
A|----------------6-6-6-6-6-6-6-6-7-7-7-7-7-7-7-7----------------------------|
E|-7-7-7--7-7-7\-------------------------------------------------------------|

G|---------------------------------------------------------------------------|
D|---------------------------------------------------------------------------|
A|---------------------------------6-6-6-6-6-6-6-6-7-7-7-7-7-7-7-7-----------|
E|-7-7-7-7-7-7-7-7-9-9-9-9-9-9-9-9-------------------------------------------|

[VERSE]

G|---------------------------------------------------------------------------|
D|---------------------------------------------------------------------------|
A|---------------------------------------------------------------------------|
E|-7-7-7-7-7-7-7-7-7-7-7-7-7-7-7-7-4-4-4-4-4-4-4-4-2-2-2-2-2-2-2-2-----------|

x4

[PRE CHOURS]

G|---------------------------------------------------------------------------|
D|---------------------------------------------------------------------------|
A|-7-7-7-7-7-7-7-7-9-9-9-9-9-9-9-9-6-6-6-6-6-6-6-6-7-7-7-7-7-7-7-7-----------|
E|---------------------------------------------------------------------------|

G|---------------------------------------------------------------------------|
D|---------------------------------------------------------------------------|
A|-7-7-7-7-7-7-7-7-9-9-9-9-9-9-9-9-9-6-6-6-6-6-6-6-6-7-7---------------------|
E|---------------------------------------------------------------------------|

[CHORUS]

G|---------------------------------------------------------------------------|
D|---------------------------------------------------------------------------|
A|---------------------------------7-7-7-7-7-7-7-7-7-7-7-7-7-7-7-7-----------|
E|-7-7-7-7-7-7-7-7-7-7-7-7-7-7-7-7-------------------------------------------|

G|---------------------------------------------------------------------------|
D|-6-6-6-6-6-6-6-6-9-9-9-9-9-9-9-9-------------------------------------------|
A|---------------------------------7-7-7-7-7-7-7-7-7-7-7-7-7-7-7-7-----------|
E|---------------------------------------------------------------------------|

G|---------------------------------------------------------------------------|
D|---------------------------------------------------------------------------|
A|---------------------------------6-6-6-6-6-6-6-6-6-6-6-6-6-6-6-6-----------|
E|-7-7-7-7-7-7-7-7-7-7-7-7-7-7-7-7-------------------------------------------|

G|---------------------------------------------------------------------------|
D|-6-6-6-6-6-6-6-6-9-9-9-9-9-9-9-9-------------------------------------------|
A|---------------------------------7-7-7-7-7-7-7-7-9-9-----------------------|
E|---------------------------------------------------------------------------|

[VERSE]

G|---------------------------------------------------------------------------|
D|---------------------------------------------------------------------------|
A|---------------------------------------------------------------------------|
E|-7-7-7-7-7-7-7-7-7-7-7-7-7-7-7-7-4-4-4-4-4-4-4-4-2-2-2-2-2-2-2-2-----------|

x2

[PRE CHOURS]

G|---------------------------------------------------------------------------|
D|---------------------------------------------------------------------------|
A|-7-7-7-7-7-7-7-7-9-9-9-9-9-9-9-9-9-6-6-6-6-6-6-6-6-7-7-7-7-7-7-7-7---------|
E|---------------------------------------------------------------------------|

G|---------------------------------------------------------------------------|
D|---------------------------------------------------------------------------|
A|-7-7-7-7-7-7-7-7-9-9-9-9-9-9-9-9-9-6-6-6-6-6-6-6-6-7-7---------------------|
E|---------------------------------------------------------------------------|

[CHORUS]

G|---------------------------------------------------------------------------|
D|---------------------------------------------------------------------------|
A|---------------------------------7-7-7-7-7-7-7-7-7-7-7-7-7-7-7-7-----------|
E|-7-7-7-7-7-7-7-7-7-7-7-7-7-7-7-7-------------------------------------------|

G|---------------------------------------------------------------------------|
D|-6-6-6-6-6-6-6-6-9-9-9-9-9-9-9-9-------------------------------------------|
A|---------------------------------7-7-7-7-7-7-7-7-7-7-7-7-7-7-7-7-----------|
E|---------------------------------------------------------------------------|

G|---------------------------------------------------------------------------|
D|---------------------------------------------------------------------------|
A|---------------------------------6-6-6-6-6-6-6-6-6-6-6-6-6-6-6-6-----------|
E|-7-7-7-7-7-7-7-7-7-7-7-7-7-7-7-7-------------------------------------------|

G|---------------------------------------------------------------------------|
D|-6-6-6-6-6-6-6-6-9-9-9-9-9-9-9-9-------------------------------------------|
A|---------------------------------7-7-7-7-7-7-7-7-9-9-9---------------------|
E|---------------------------------------------------------------------------|

[BRIDGE]

G|---------------------------------------------------------------------------|
D|-------------------------------------------------6-6-6-6-------------------|
A|-6-6-6-6-6-6-6-6-7-7-7-7-7-7-7-7-9-9-9-9-9-9-9-9---------9-9-9-9-----------|
E|---------------------------------------------------------------------------|

x2

G|---------------------------------------------------------------------------|
D|-------------------------------6-6-6-6-------------------------------------|
A|-6-6-6-6---7-7-7-7---9-9-9-9-------------9-9-9-9---------------------------|
E|---------------------------------------------------------------------------|

G|---------------------------------------------------------------------------|
D|---------------------------------------------------------------------------|
A|-6-6-6-6---7-7-7-7---9-9-9-9-9-9-9-9---------------------------------------|
E|---------------------------------------------------------------------------|

[CHORUS]

G|---------------------------------------------------------------------------|
D|---------------------------------------------------------------------------|
A|---------------------------------7-----------------------------------------|
E|-7-------------------------------------------------------------------------|

G|---------------------------------------------------------------------------|
D|-6-6-6-6-6-6-6-6-9-9-9-9-9-9-9-9-------------------------------------------|
A|---------------------------------7-7-7-7-7-7-7-7-7-7-7-7-7-7-7-7-----------|
E|---------------------------------------------------------------------------|

G|---------------------------------------------------------------------------|
D|---------------------------------------------------------------------------|
A|---------------------------------6-6---------------------------------------|
E|-7-7-7-7-7-7-7-7-7-7-7-7-7-7-7-7-------------------------------------------|

G|---------------------------------------------------------------------------|
D|-6-6-6-6-6-6-6-6-9-9-9-9-9-9-9-9-------------------------------------------|
A|---------------------------------7-7-7-7-7-7-7-7-9-9-----------------------|
E|---------------------------------------------------------------------------|

G|---------------------------------------------------------------------------|
D|---------------------------------------------------------------------------|
A|---------------------------------7-7-7-7-7-7-7-7-7-7-7-7-7-7-7-7-----------|
E|-7-7-7-7-7-7-7-7-7-7-7-7-7-7-7-7-------------------------------------------|

G|---------------------------------------------------------------------------|
D|-6-6-6-6-6-6-6-6-9-9-9-9-9-9-9-9-------------------------------------------|
A|---------------------------------7-7-7-7-7-7-7-7-7-7-7-7-7-7-7-7-----------|
E|---------------------------------------------------------------------------|

G|---------------------------------------------------------------------------|
D|---------------------------------------------------------------------------|
A|---------------------------------7-7-7-7-7-7-7-7-7-7-7-7-7-7-7-7-----------|
E|-7-7-7-7-7-7-7-7-7-7-7-7-7-7-7-7-------------------------------------------|

G|---------------------------------------------------------------------------|
D|-6-6-6-6-6-6-6-6-9-9-9-9-9-9-9-9-------------------------------------------|
A|---------------------------------7-7-7-7-7-7-7-7-9-9-----------------------|
E|---------------------------------------------------------------------------|





| /  slide up
| \  slide down
| h  hammer-on
| p  pull-off
| ~  vibrato
| +  harmonic
| x  Mute note
===============================================================================

            
            
Suggest correction
Creating personal tab
Creating personal tab
You can edit any tab online and save it as your Personal.

You can edit, replace or remove any tab part or add personal notes – all changes will be seen only by you.

Personal tabs can be accessed anytime from any device, even offline.
Learn more »
comments
print report bad tab
guest
You may want to rate the tab now too:
select rating
Wanna post a correction for this tab? Suggest correction