Oops, an error
Loading. Please wait.

Try Hard Tab

version 1
version 1

Whole song

  • There are many guitar parts the other versions did... Show more
14,885 views 42 this week
2 commentsread comments
1 2 3 4 5
accurate
x 7
add to favorites
launch autoscroll
font size
0
reset
how to read this tab
guitar tuner
Autoscroll
slow
fast
+/-
esc
set tempo
stop
Help us to improve Ultimate-Guitar.com Take our survey!
×
Author
Try Hard - 5 Seconds of Summer

This is my first tab. I learned most of it from chords, but I figured out the intro by
ear. This may not be the way they play it but it sounds alright to me. That one quiet
chorus might be sort of rough, I can’t really hear it since the guitar is soft. 
Please leave any suggestions! :D

[Intro]
e------------------------------|
B------------------------------|
G------------------------------|
D-------4---2------------1-----| (2x)
A--2-2----------4-4--2-4---4-2-|
E------------------------------|

e------------------------------|
B------------------------------|
G------------------------------|
D-------4---2-------------2-1--|
A--2-2----------4-4--2-4-------|
E------------------------------|

[Verse]
e------------------------------------|
B------------------------------------|
G--4-------------------------1-------|
D--4-(x16)-4--------6--------2-(x16)-|
A--2-------4-(x16)--6-(x16)--2-------|
E----------2--------4----------------|
   *        *        *        *

[Pre-Chorus]
e-----------------------------------|
B-----------------------------------|
G--4----------------1---------------|
D--4--------4-------2-(w/ build up)-|
A--2--------4-------2---------------|
E-----------2-----------------------|

Chorus: (2x)
e--------------------------------|
B--------------------------------|
G--4------2------1-------0-------|
D--4------4------2-(x16)-2-(x16)-|
A--2------4------2-------2-------|
E--------------------------------|

Repeat Intro 2x
Repeat Verse 2x
Repeat Pre-Chorus
Repeat Chorus 2x

[Bridge]
e--------------------------------|
B--------------------------------|
G---------1------4---------------|
D--6------2------4-------4-------|
A--6------2------2-------4-------|
E--4---------------------2-------|
(3x)
   Then the build up:
e--------------------------------|
B--------------------------------|
G--1----0------------------------|
D--2----2-(x16)------------------|
A--2----2------------------------|
E--------------------------------|

Alt. Chorus
e---------------------------------|
B---------------------------------|
G--4--------------1-------0-------|
D---4-(x4)-4-------2-(x4)-2-(x16)-|
A----2------4-(x4)--2-----2-------|
E------------2--------------------|

Repeat Chorus 2x (strum all x16)
Repeat Intro 2x

End on
e-----|
B-----|
G--4--|
D--4--|
A--2--|
E-----|
Suggest correction
comments
print report bad tab
2 comments total.
0 reply
sydney1003 10 wrote on February 7 2015, 09:25 pm

is this in standard or drop d tuning? :--)

0 reply
witherskull67 10 wrote on August 11 2016, 04:49 pm

its in standard tuning :D

guest
You may want to rate the tab now too:
select rating
Wanna post a correction for this tab? Suggest correction