Oops, an error
Loading. Please wait.

Unpredictable Bass Tab

version 1
version 1

Whole song

9,865 views 117 this week
1 commentread comment
1 2 3 4 5
excellent!
x 18
add to favorites
launch autoscroll
font size
0
reset
guitar tuner
Tab Pro tools
  • play this tab
  • loop segment
  • change instrument
  • show fretboard
  • metronome
×
Best way to learn
"Unpredictable"
Autoscroll
slow
fast
+/-
esc
set tempo
stop
Contributor
-------------------------------------------------------------------------------
                             UNPREDICTABLE  5 Seconds of Summer
-------------------------------------------------------------------------------
Tabbed by: bandgirl0406
E-mail: emmakelleway@gmail.com

This is my first tab so it may not be completely correct, but it works.

Tuning: standard

Intro
G|----------------------------------|
D|----------------------------------|
A|--2-2-2-2-------------------------|
E|---------2-0-0022-4-4-4-4-20-0022-| x2

Verse
G|----------------------------------|
D|----------------------------------|
A|--2-2-2-2-------------------------|
E|---------2-0-0022-4-4-4-4-20-0022-| x4


Chorus
G|-------------------------|
D|-------------------------|
A|-22222-------------------|
E|-------22222-44444-22222-| x4

Verse
Chorus

Guitar solo
G|----------------------------------|
D|----------------------------------|
A|-22222222-------------------------|
E|---------222222224444444422222222-| x2

Bridge 
G|--------------------------------------------------------|
D|--------------------------------------------------------|
A|--------------------------------------------------------|
E|44-44---------00-00----------22-22-----4444444422222222-|

Chorus (1st half no bass)

Outro 
G|-----------------------------------------------------------------|
D|-----------------------------------------------------------------|
A|-22222222---------------------------22222222---------------------|
E|---------22222222-44444444-22222222----------22222222-44444444-2-|

===============================================================================
comments
print report bad tab
1 comment total.
0 reply
raenonalie wrote on August 30 2015, 01:05 am, edited at 01:06 am

Tuning: DADG

Intro
G|---------------------------------------|
D|---------------------------------------|
A|--2-2-2-2------------------------------|
D|----------4-2--1211--6-6-6-6--42--1244-| x2

Verse
G|---------------------------------------|
D|---------------------------------------|
A|--2-2-2-2------------------------------|
D|----------4-2--1211--6-6-6-6--42--1244-| x4

Chorus
G|-------------------------------------------------|
D|-------------------------------------------------|
A|-22222-------44444--------------22222------------|
D|-------44444-------22222--66666-------22222-22222| x2

Post-Chorus:
G|-------------------------------------------------|
D|-------------------------------------------------|
A|-2222222222222-----------------------------------|
D|-------------------------------------------------|

Verse
Chorus

Instrumental
G|-------------------------------------|
D|-------------------------------------|
A|-22222222----------44444444-77777777-|
D|----------44444444-------------------|

Bridge
G|--------------------------------------------------------|
D|--------------------------------------------------------|
A|------------------------------44-44----7777777777777777-|
D|66-66---------22-22-------------------------------------|

Chorus (1st half no bass)

Outro
G|-----------------------------------|
D|-----------------------------------|
A|-22222222----------44444444-77777--|
D|----------44444444-----------------|

I want to post or [tab]
guest
You may want to rate the tab now too:
select rating
Please do not post tabs as comments. Select "correction" instead!