Oops, an error
Loading. Please wait.

Vapor bass

91 views 9 this week
no commentswrite comment
1 2 3 4 5
3 more votes to show rating
add to favorites
×
Save as Personal and add changes to this tab that will be seen only by you. Learn more ›
×
You can save this tab as Personal to edit and correct it or add notes. All changes will be seen only by you. Learn more »
launch autoscroll
font size
0
reset
guitar tuner
edit
Autoscroll
slow
fast
+/-
esc
set tempo
stop
About this tab version
This is what Calum (the bassist) plays, but you really have to listen out for the bass to understand the notes. Was this info helpful? Yes No
I don't use a plectrum to play this because it doesn't work with the bridge.
Just a quick warning, you really have to listen for the bass in the song to understand the notes.
I used the offical 'Vapor' track on their CD version, but Spotify's version also works, for the timing.

[Intro] 

0:00

Rest

[Verse] 

0:06

G|----------------------------------------------------------------|
D|-----------------4~--4~--4~--4~------------------4~--4~--4~--4~-|
A|-4~--4~--4~--4~------------------4~--4~--4~--4~-----------------|
E|----------------------------------------------------------------|

[Chorus] 

0:47

G|-----------------------------------------------------------------|
D|-------------------------------------------------------4--4--4-\-|
A|-4--4--4--4-4-4-4------------------------------------------------|
E|-------------------6--6--6--6-6-6-6--4--4--4--4-4-4-4------------|

G|-----------------------------------------------------------------|
D|-------------------------------------------------------4--4--4-\-|
A|-4--4--4--4-4-4-4------------------------------------------------|
E|-------------------6--6--6--6-6-6-6--4--4--4--4-4-4-4------------|

[Verse] 

0:56

G|----------------------------------------------------|
D|---------------------------4--4-4-4-4----4--4-4-4-4-|
A|-4--4-4-4-4----4--4-4-4-4--------------4------------|
E|-------------4--------------------------------------|

G|----------------------------------------------------|
D|---------------------------4--4-4-4-4----4--4-4-4-4-|
A|-4--4-4-4-4----4--4-4-4-4--------------4------------|
E|-------------4--------------------------------------|

[Chorus] 

1:21

G|-----------------------------------------------------------------|
D|-------------------------------------------------------4--4--4-\-|
A|-4--4--4--4-4-4-4------------------------------------------------|
E|-------------------6--6--6--6-6-6-6--4--4--4--4-4-4-4------------|

G|-----------------------------------------------------------------|
D|-------------------------------------------------------4--4--4-\-|
A|-4--4--4--4-4-4-4------------------------------------------------|
E|-------------------6--6--6--6-6-6-6--4--4--4--4-4-4-4------------|

[Bridge] 

1:45

G|---------------------------------------------------|
D|---------------------------------------------------|
A|----9-11--------------9-11-------------------------|
E|-9-------11-9------9-------11-9---6-6-6--6-6-4-4-4-|

[Instrumental] 

1:58

G|------------------------------------------------------------------|
D|------------------------------------------------------------------|
A|---------------------------------------------------------------4~-|
E|-9-9-9-9-9-9-9-6-6-6-6-4-4-4-4-9-9-9-9-9-9-9-9-6-6-6-6-4-4-4-4----|

[Chorus] 

2:13

G|-----------------------------------------------------------------|
D|-------------------------------------------------------4--4--4-\-|
A|-4--4--4--4-4-4-4------------------------------------------------|
E|-------------------6--6--6--6-6-6-6--4--4--4--4-4-4-4------------|

G|-----------------------------------------------------------------|
D|-------------------------------------------------------4--4--4-\-|
A|-4--4--4--4-4-4-4------------------------------------------------|
E|-------------------6--6--6--6-6-6-6--4--4--4--4-4-4-4------------|

[Outro] 

2:38

G|--------------------|
D|--------------------|
A|-4~------4~------4~-|
E|--------------------|

***********************

\ = Slide down
~ = Vibrato

            
            
Suggest correction
Creating personal tab
Creating personal tab
You can edit any tab online and save it as your Personal.

You can edit, replace or remove any tab part or add personal notes – all changes will be seen only by you.

Personal tabs can be accessed anytime from any device, even offline.
Learn more »
Give kudos to tab author, rate the tab!
1 2 3 4 5
comments
print report bad tab
guest
You may want to rate the tab now too:
select rating
Wanna post a correction for this tab? Suggest correction