Oops, an error
Loading. Please wait.

Voodoo Doll Tab

version 1
version 1

Acoustic

Whole song

29,171 views 96 this week
3 commentsread comments
1 2 3 4 5
excellent!
x 17
add to favorites
launch autoscroll
font size
0
reset
how to read this tab
guitar tuner
Autoscroll
slow
fast
+/-
esc
set tempo
stop
Help us to improve Ultimate-Guitar.com Take our survey!
×
Author
Difficulty
-------------------------------------------------------------------------------
                VOODOO DOLL (ACOUSTIC) - 5 Seconds of Summer
-------------------------------------------------------------------------------
Tabbed by: Nathan Unsworth
E-mail: NathanUnsworth1@hotmail.co.uk

Tuning: Standard EADGBA
Video this Tab is worked from: https://www.youtube.com/watch?v=Z9y01YEIKhU

[Intro]

e|---------------------------------------------------------------------------|
B|---------------------------------------------------------------------------|
G|-----7-7---------------------------7-7-------------------------------------|
D|-----7-7-----4-4-4-5-5---7-7-------7-7-----4-4-4-5-5---7-------------------| x2
A|-----5-5-----4-4-4-5-5---7-7-------5-5-----4-4-4-5-5---7-------------------|
E|-------------2-2-2-3-3---5-5---------------2-2-2-3-3---5-------------------|

Well, I don't even like you why'd you want to go and make me feel this way?
and I don't understand what's happened I keep saying things I never say.
e|---------------------------------------------------------------------------|
B|---------------------------------------------------------------------------|
G|-----7-7---------------------------7-7-------------------------------------|
D|-----7-7-----4-4-4-5-5---7-7-------7-7-----4-4-4-5-5---7-------------------|x2
A|-----5-5-----4-4-4-5-5---7-7-------5-5-----4-4-4-5-5---7-------------------|
E|-------------2-2-2-3-3---5-5---------------2-2-2-3-3---5-------------------|

cause I can feel you watching even when you're nowhere to be seen.
and I can feel you touching even when you're far away from me.
*palm muted*
e|---------------------------------------------------------------------------|
B|---------------------------------------------------------------------------|
G|---------------------------------------------------------------------------|
D|-----5----------7----------------------------------------------------------|x2
A|-----5-- x16 ---7-- x16 ---------------------------------------------------|
E|-----3----------5----------------------------------------------------------|

Tell me where you're hiding your voodoo doll 'cause I can't control myself.
I don't wanna stay I wanna run away but i'm trapped under your spell
e|---------------------------------------------------------------------------|
B|---------------------------------------------------------------------------|
G|-----7---------------------------------------------------------------------|
D|-----7--7-7--5-5--7-7------------------------------------------------------|x4
A|-----5--7-7--5-5--7-7------------------------------------------------------|
E|--------5-5--3-3--5-5------------------------------------------------------|

and it hurts in my head and my heart and my chest
and i'm having trouble catching my breath
e|---------------------------------------------------------------------------|
B|-----3-3-3-3---------------------------------------------------------------|
G|-----4-4-4-4--3-3-3-3--6-6-6-6--3-3-3-3------------------------------------|
D|-----4-4-4-4--4-4-4-4--7-7-7-7--2-2-2-2------------------------------------|
A|-----2-2-2-2--4-4-4-4--7-7-7-7--2-2-2-2------------------------------------|
E|--------------2-2-2-2--5-5-5-5--0-0-0-0------------------------------------|

Ooh ooh, won't you please stop loving me to death?
*palm muted*
e|---------------------------------------------------------------------------|
B|---------------------------------------------------------------------------|
G|-----4---------------------------------------------------------------------|
D|-----5---------------------------------------------------------------------|
A|-----5-- x32 --------------------------------------------------------------|
E|-----3---------------------------------------------------------------------|

e|---------------------------------------------------------------------------|
B|---------------------------------------------------------------------------|
G|-----7-7---------------------------7-7-------------------------------------|
D|-----7-7-----4-4-4-5-5---7-7-------7-7-----4-4-4-5-5---7-------------------|
A|-----5-5-----4-4-4-5-5---7-7-------5-5-----4-4-4-5-5---7-------------------|
E|-------------2-2-2-3-3---5-5---------------2-2-2-3-3---5-------------------|

Well I don't even see my friends no more cause I keep hanging out with you.
I don't know how you keep me up all night of how I got this tattoo.
e|---------------------------------------------------------------------------|
B|---------------------------------------------------------------------------|
G|-----7-7---------------------------7-7-------------------------------------|
D|-----7-7-----4-4-4-5-5---7-7-------7-7-----4-4-4-5-5---7-------------------| x2
A|-----5-5-----4-4-4-5-5---7-7-------5-5-----4-4-4-5-5---7-------------------|
E|-------------2-2-2-3-3---5-5---------------2-2-2-3-3---5-------------------|

cause I can feel you watching even when you're nowhere to be seen.
and I can feel you touching even when you're far away from me.
*palm muted*
e|---------------------------------------------------------------------------|
B|---------------------------------------------------------------------------|
G|---------------------------------------------------------------------------|
D|-----5----------7----------------------------------------------------------|x2
A|-----5-- x16 ---7-- x16 ---------------------------------------------------|
E|-----3----------5----------------------------------------------------------|

So tell me where you're hiding your voodoo doll 'cause I can't control myself.
I don't wanna stay I wanna run away but i'm trapped under your spell
e|---------------------------------------------------------------------------|
B|---------------------------------------------------------------------------|
G|-----7---------------------------------------------------------------------|
D|-----7--7-7--5-5--7-7------------------------------------------------------|x4
A|-----5--7-7--5-5--7-7------------------------------------------------------|
E|--------5-5--3-3--5-5------------------------------------------------------|

and it hurts in my head and my heart and my chest
and i'm having trouble catching my breath
e|---------------------------------------------------------------------------|
B|-----3-3-3-3---------------------------------------------------------------|
G|-----4-4-4-4--3-3-3-3--6-6-6-6--3-3-3-3------------------------------------|
D|-----4-4-4-4--4-4-4-4--7-7-7-7--2-2-2-2------------------------------------|
A|-----2-2-2-2--4-4-4-4--7-7-7-7--2-2-2-2------------------------------------|
E|--------------2-2-2-2--5-5-5-5--0-0-0-0------------------------------------|

Ooh ooh, won't you please stop loving me to death?
*palm muted*
e|---------------------------------------------------------------------------|
B|---------------------------------------------------------------------------|
G|-----4---------------------------------------------------------------------|
D|-----5---------------------------------------------------------------------|
A|-----5-- x32 --------------------------------------------------------------|
E|-----3---------------------------------------------------------------------|

e|---------------------------------------------------------------------------|
B|---------------------------------------------------------------------------|
G|-----7-7---------------------------7-7-------------------------------------|
D|-----7-7-----4-4-4-5-5---7-7-------7-7-----4-4-4-5-5---7-------------------|
A|-----5-5-----4-4-4-5-5---7-7-------5-5-----4-4-4-5-5---7-------------------|
E|-------------2-2-2-3-3---5-5---------------2-2-2-3-3---5-------------------|

I can feel you watching even when you're far away from me.
and I can feel you touching even when you're nowhere to be seen.
*palm muted*
e|---------------------------------------------------------------------------|
B|---------------------------------------------------------------------------|
G|---------------------------------------------------------------------------|
D|-----5----------7----------------------------------------------------------|x2
A|-----5-- x16 ---7-- x16 ---------------------------------------------------|
E|-----3----------5----------------------------------------------------------|

Every time I see you suddenly my heart begins to race, and
every time I leave I don't know why my heart begins to break
e|---------------------------------------------------------------------------|
B|---------------------------------------------------------------------------|
G|---------------------------------------------------------------------------|
D|-----5----------7----------------------------------------------------------|x2
A|-----5-- x16 ---7-- x16 ---------------------------------------------------|
E|-----3----------5----------------------------------------------------------|

So tell me where you're hiding your voodoo doll 'cause I can't control myself.
I don't wanna stay I wanna run away but i'm trapped under your spell
e|---------------------------------------------------------------------------|
B|---------------------------------------------------------------------------|
G|-----7---------------------------------------------------------------------|
D|-----7--7-7--5-5--7-7------------------------------------------------------|x4
A|-----5--7-7--5-5--7-7------------------------------------------------------|
E|--------5-5--3-3--5-5------------------------------------------------------|

and it hurts in my head and my heart and my chest
and i'm having trouble catching my breath
e|---------------------------------------------------------------------------|
B|-----3-3-3-3---------------------------------------------------------------|
G|-----4-4-4-4--3-3-3-3--6-6-6-6--3-3-3-3------------------------------------|
D|-----4-4-4-4--4-4-4-4--7-7-7-7--2-2-2-2------------------------------------|
A|-----2-2-2-2--4-4-4-4--7-7-7-7--2-2-2-2------------------------------------|
E|--------------2-2-2-2--5-5-5-5--0-0-0-0------------------------------------|

Won't you please stop loving me to death?
e|---------------------------------------------------------------------------|
B|---------------------------------------------------------------------------|
G|-----4---------------------------------------------------------------------|
D|-----5---------------------------------------------------------------------|
A|-----5-- x32 --------------------------------------------------------------|
E|-----3---------------------------------------------------------------------|

e|---------------------------------------------------------------------------|
B|---------------------------------------------------------------------------|
G|-----7-7---------------------------7-7-------------------------------------|
D|-----7-7-----4-4-4-5-5---7-7-------7-7-----4-4-4-5-5---7-------------------| x2
A|-----5-5-----4-4-4-5-5---7-7-------5-5-----4-4-4-5-5---7-------------------|
E|-------------2-2-2-3-3---5-5---------------2-2-2-3-3---5-------------------|


Strumming patterns are very easy and you can figure it out just by listening to the song.
The acoustic version is great fun and so I thought there should be a tab for it, enjoy!
You should note that I have made this to be played all on one guitar whereas in the video
it is played on two. So you won't be constantly playing with Luke or Michael but switching
roles as it plays.
Suggest correction
comments
print report bad tab
3 comments total.
0 reply
yagmurbuguc 10 wrote on July 13 2014, 09:54 pm

Thank you. That's perfect. I hope you'll make more songs. You rock.

0 reply
NathanUnsworth9 53 wrote on July 19 2014, 04:13 pm

Thanks! Glad to know it helped.

-1 reply
bennjerrys6510 10 wrote on September 6 2014, 09:46 pm

You didn't have the little part Michael does at the end of the chorus so I just looked at what he does in the video and figured it would be this:

e|------------------------------------------------------------------------------|
B|---10-10-------------------10-10-----10-12-10---------------------------------|
G|----------11-12-11----------------11------------------------------------------|
D|--------------------14-12-----------------------------------------------------| x2
A|------------------------------------------------------------------------------|
E|------------------------------------------------------------------------------|

This is an alternative (I thought it was this at first). The notes are the same, just different strings and stretches:

e|------------------------------------------------------------------------------|
B|------------------------------------------------------------------------------|
G|--14-14-11-12-11-------14-14-11-14-16-14--------------------------------------|
D|-----------------14-12--------------------------------------------------------| x2
A|------------------------------------------------------------------------------|
E|------------------------------------------------------------------------------|

guest
You may want to rate the tab now too:
select rating
Please do not post tabs as comments. Select "correction" instead!