Oops, an error
Loading. Please wait.

Waste The Night tab

version 1
version 1

Whole song

2,107 views 18 this week
no commentswrite comment
1 2 3 4 5
x 3
add to favorites
×
Save as Personal and add changes to this tab that will be seen only by you. Learn more ›
×
You can save this tab as Personal to edit and correct it or add notes. All changes will be seen only by you. Learn more »
launch autoscroll
font size
0
reset
how to read this tab
guitar tuner
edit
Autoscroll
slow
fast
+/-
esc
set tempo
stop
Author
Difficulty
-------------------------------------------------------------------------------
                             Waste the Night - 5 Seconds of Summer
-------------------------------------------------------------------------------

Note: You can use any strumming pattern that suits you during the Chorus & Bridge parts...

Tuning: Standard
Intro:"I, need your love, need your love..." 
e|-------------------------------------|    |--------------------------------------|
B|-------------------------------------|    |--------------------------------------|
G|-------10----10--12----12-------12---|    |------10----10----12------12----------|
D|----13---13----13--13----13---13--13-| 2x |----13--13----13----13--13--13--------| 2x
A|--11-------11--------11----11--------|    |--------------------------------------|
E|-------------------------------------|    |--11------11----11----11--------------|

Verse: "Taste in your tongue, the smoke in your lungs..."
e|-------------------------------------|    |--------------------------------------|
B|-------------------------------------|    |--------------------------------------|
G|-------10----10--12----12-------12---|    |------10----10----12------12----------|
D|----13---13----13--13----13---13--13-| 2x |----13--13----13----13--13--13--------| 2x
A|--11-------11--------11----11--------|    |--------------------------------------|
E|-------------------------------------|    |--11------11----11----11--------------|

Verse: "Salt on your skin, is pulling me in..."
e|-------------------------------------|    |--------------------------------------|
B|-------------------------------------|    |--------------------------------------|
G|-------10----10--12----12-------12---|    |------10----10----12------12----------|
D|----13---13----13--13----13---13--13-| 2x |----13--13----13----13--13--13--------| 2x
A|--11-------11--------11----11--------|    |--------------------------------------|
E|-------------------------------------|    |--11------11----11----11--------------|

Pre-Chorus: "I don't wanna say goodbye to another night, and watch you walk away..."
e|-------------------------------------|    |--------------------------------------|
B|-------------------------------------|    |--------------------------------------|
G|-------10----10--12----12-------12---|    |------10----10----12------12----------|
D|----13---13----13--13----13---13--13-| 2x |----13--13----13----13--13--13--------| 2x
A|--11-------11--------11----11--------|    |--------------------------------------|
E|-------------------------------------|    |--11------11----11----11--------------|

Chorus: "This time, I don't wanna waste it, don't wanna waste it..."
e|---------------------------------|
B|---------------------------------|
G|--8---------------------6--------|
D|--8-(32x)----6----------6-(3x)---| 2x
A|--6----------6-(32x)----4--------|
E|-------------4-------------------|

Verse: "Scratch in your voice, leaves me no choice..."
e|-------------------------------------|    |--------------------------------------|
B|-------------------------------------|    |--------------------------------------|
G|-------10----10--12----12-------12---|    |------10----10----12------12----------|
D|----13---13----13--13----13---13--13-| 2x |----13--13----13----13--13--13--------| 2x
A|--11-------11--------11----11--------|    |--------------------------------------|
E|-------------------------------------|    |--11------11----11----11--------------|

Pre-Chorus: "I don't wanna say goodbye to another night, and watch you walk away..."
e|-------------------------------------|    |--------------------------------------|
B|-------------------------------------|    |--------------------------------------|
G|-------10----10--12----12-------12---|    |------10----10----12------12----------|
D|----13---13----13--13----13---13--13-| 2x |----13--13----13----13--13--13--------| 2x
A|--11-------11--------11----11--------|    |--------------------------------------|
E|-------------------------------------|    |--11------11----11----11--------------|

Chorus: "This time, I don't wanna waste it, don't wanna waste it.."
e|---------------------------------|
B|---------------------------------|
G|--8---------------------6--------|
D|--8-(32x)----6----------6-(3x)---| 2x
A|--6----------6-(32x)----4--------|
E|-------------4-------------------|

Bridge:"I don't wanna say goodbye to another night..."
e|----------------------------------------------------------------------------------------|
B|----------------------------------------------------------------------------------------|
G|--8------x--8--------8------x--8---------8------x--8--------8------x--8---------6-------|
D|--8-(4x)-x--8-(4x)---8-(4x)-x--8-(4x)----8-(4x)-x--8-(4x)---8-(4x)-x--8-(4x)----6-(3x)--|
A|--6------x--6--------6------x--6---------6------x--6--------6------x--6---------4-------|
E|----------------------------------------------------------------------------------------|

e|----------------------------------------------------------------------------------------|
B|----------------------------------------------------------------------------------------|
G|--8------x--8--------8------x--8---------8------x--8--------6------x--6--------6------x-|
D|--8-(4x)-x--8-(4x)---8-(4x)-x--8-(4x)----8-(4x)-x--8-(4x)---6-(4x)-x--6-(4x)---6-(4x)-x-|
A|--6------x--6--------6------x--6---------6------x--6--------4------x--4--------4------x-|
E|----------------------------------------------------------------------------------------|

Chorus: "This time, I don't wanna waste it, don't wanna waste it..."
e|---------------------------------|
B|---------------------------------|
G|--8---------------------6--------|
D|--8-(32x)----6----------6-(3x)---| 2x
A|--6----------6-(32x)----4--------|
E|-------------4-------------------|

*Fade out*

************************************

| /   slide up
| \   slide down
| h   hammer-on
| p   pull-off
| ~   vibrato
| +   harmonic
| x   Mute note
| b   Bend
| pb  Pre-bend
| br  Bend release
| pbr Pre-bend release
| brb Bend release bend

************************************

            
            
Suggest correction
Creating personal tab
Creating personal tab
You can edit any tab online and save it as your Personal.

You can edit, replace or remove any tab part or add personal notes – all changes will be seen only by you.

Personal tabs can be accessed anytime from any device, even offline.
Learn more »
Give kudos to tab author, rate the tab!
1 2 3 4 5
comments
print report bad tab
guest
You may want to rate the tab now too:
select rating
Wanna post a correction for this tab? Suggest correction