Oops, an error
Loading. Please wait.

Waste The Night tab

version 2
version 2

Whole song

463 views 9 this week
no commentswrite comment
1 2 3 4 5
2 more votes to show rating
add to favorites
×
Save as Personal and add changes to this tab that will be seen only by you. Learn more ›
×
You can save this tab as Personal to edit and correct it or add notes. All changes will be seen only by you. Learn more »
launch autoscroll
font size
0
reset
how to read this tab
guitar tuner
edit
Autoscroll
slow
fast
+/-
esc
set tempo
stop
Author
Difficulty
-----------------------------------------------------------------------------
                           WASTE THE NIGHT - 5 Seconds Of Summer
-----------------------------------------------------------------------------
E-mail: a7xlucas@live.com

Tuning: Standard (EADGBe)

Check out my guitar cover on YouTube!: https://www.youtube.com/watch?v=sOeH0FWOafo

Guitar 1 - Luke Hemmings
Guitar 2 - Michael Clifford

Intro/Verse (Guitar 2 only), repeat as many times as necessary
e|---------------------------------|------------------%----------|
B|-----6-----6---8-----8-------8---|-----6-----6-----8-------8---| At 00:49 right before the
G|---8---8-----8---8-----8---8---8-|---8---8-----8-----8---8---8-| chorus stop at the % symbol
D|-6-------6---------6-----6-------|-----------------------------|
A|---------------------------------|-6-------6-----6-----6-------|
E|------------------------------2x-|--------------------------2x-|

Chorus:

Guitar 1, 2x
e|---------------------|
B|---------------------|
G|--8~-----------------|
D|--8~---------6~------|
A|--6~---------6~------|
E|-------------4~------|

Guitar 2, 2x
e|------------------------------------------|
B|--8~--------------6~--6~--8~--8~--9-9-9-9-|
G|-------------8~---------------------------|
D|--8~---------6~---------------------------| 
A|--6~--------------------------------------|
E|------------------------------------------|

Verse 2:

Guitar 1, repeat as many times as necessary
e|---------------------------------|-----------------------------|
B|-----6-----6---8-----8-------8---|-----6-----6-----8-------8---|
G|---8---8-----8---8-----8---8---8-|---8---8-----8-----8---8---8-|
D|-6-------6---------6-----6-------|-----------------------------|
A|---------------------------------|-6-------6-----6-----6-------|
E|------------------------------2x-|--------------------------2x-|

Guitar 2 (listen closely for this, comes in at 1:18)
e|--------------------------------------------------------------------------------------------------|
B|-----------8---8-8-8~\----8-8-8-8-8~\-------8--8--9---9-9-9~\------8--8--9---999~\----------------|
G|-----------8---8-8-8~\----8-8-8-8-8~\-------8--8--8---8-8-8~\------8--8--8---888~\---8t--x64--8~\-|
D|--------------------------------------------------------------------------------------------------|
A|--------------------------------------------------------------------------------------------------|
E|--------------------------------------------------------------------------------------------------|
                                                                                           ^or however
Repeat:                                                                                     many times
Chorus

Bridge:
e|-------------------------------------4x-|----1.-|----3x---2.-||------|
B|----------------------------------------|-------|------------||------|
G|----------------------------------------|-------|------------||------|
D|----------------------------------------|-------|------------||------|
A|----------------------------------------|-------|-/6-6-6-6~\-||-/6~\-|
E|-/11-11-11-11-11~\-xx-/11-11-11-11-11~\-|-9-9-9-|-/4-4-4-4~\-||-/4~\-|

Repeat:
Chorus

Outro (Guitar 2 only):
e|-16~-15~----|----------------------------------|
B|--------16~-|-13~----16~----13~----16~---------|
G|------------|----------------------------------|
D|------------|----------------------------------|
A|------------|----------------------------------|
E|---------4x-|----------------------------------|

            
            
Suggest correction
Creating personal tab
Creating personal tab
You can edit any tab online and save it as your Personal.

You can edit, replace or remove any tab part or add personal notes – all changes will be seen only by you.

Personal tabs can be accessed anytime from any device, even offline.
Learn more »
Give kudos to tab author, rate the tab!
1 2 3 4 5
comments
print report bad tab
guest
You may want to rate the tab now too:
select rating
Wanna post a correction for this tab? Suggest correction