Oops, an error
Loading. Please wait.

Ham Tab

109 views 3 this week
no commentswrite comment
1 2 3 4 5
3 more votes to show rating
add to favorites
launch autoscroll
font size
0
reset
how to read this tab
guitar tuner
Autoscroll
slow
fast
+/-
esc
set tempo
stop
Help us to improve Ultimate-Guitar.com Take our survey!
×
Author
Difficulty
Tuning
advanced
A E A D F# B
-------------------------------------------------------------------------------
                             Voodoo Doll - 5 Seconds of Summer
-------------------------------------------------------------------------------
Tabbed by:him
E-mail: no
Tuning:Standard


e|-----------------------------------------------------------------------------|
B|---------11-9-8-7-6-7--3-14-9-13-11-1----------------------------------------|
G|----1-3----------------------------------------------------------------------|
D|-----------------------------------------------------------------------------|
A|-----------------------------------------------------------------------------|
E|-----------------------------------------------------------------------------|


shh


e|---------------------------------------------------------------------------|
B|---------23872304923094----------------44444444------331111------77--------|
G|----18-4-------------------------------------------------------------------|
D|---------------------------------------------------------------------------|
A|---------------------------------------------------------------------------|
E|---------------------------------------------------------------------------|
Suggest correction
Give kudos to tab author, rate the tab!
1 2 3 4 5
comments
print report bad tab
guest
You may want to rate the tab now too:
select rating
Wanna post a correction for this tab? Suggest correction