Oops, an error
Loading. Please wait.

Date With The Needle Live chords

by 63 High
67 views 3 this week
no commentswrite comment
1 2 3 4 5
3 more votes to show rating
add to favorites
×
Save as Personal and add changes to this tab that will be seen only by you. Learn more ›
×
You can save this tab as Personal to edit and correct it or add notes. All changes will be seen only by you. Learn more »
launch autoscroll
font size
0
reset
transpose
0
reset
display chords
guitar tuner
edit
Autoscroll
slow
fast
+/-
esc
set tempo
stop
Author
Difficulty
About this tab version
It combines 2 live versions, and can be played in both a reggae vibe as well as a punk one. Best use full bar chords or power chords. Was this info helpful? Yes No
Strumming Is this strumming pattern correct? Yes No
Entire 170 bpm
1
&
2
&
3
&
4
&
5
&
6
&
7
&
8
&
9
&
10
&
11
&
12
&
13
&
14
Listen
[Intro]

e|12-----12-----12---10-----10-----10---|12-----12-----12---10-----10-----10---|
B|--10-----10-----10---10-----10-----10-|--10-----10-----10---10-----10-----10-|
G|----12-----12----------12-----12------|----12-----12----------12-----12------|
A|--------------------------------------|--------------------------------------|
A|--------------------------------------|--------------------------------------|
E|--------------------------------------|--------------------------------------|

e|12-----12-----12---10-----10-----10---|12-----12-----12---10-----10-----10---|
B|--10-----10-----10---10-----10-----10-|--10-----10-----10---10-----10-----10-|
G|----12-----12----------12-----12------|----12-----12----------12-----12------|
A|--------------------------------------|--------------------------------------|
A|--------------------------------------|--------------------------------------|
E|--------------------------------------|--------------------------------------|

e|12-----12-----12---10-----10-----10---|12-----12-----12---10-----10-----10---|
B|--10-----10-----10---10-----10-----10-|--10-----10-----10---10-----10-----10-|
G|----12-----12----------12-----12------|----12-----12----------12-----12------|
A|--------------------------------------|--------------------------------------|
A|--------------------------------------|--------------------------------------|
E|--------------------------------------|--------------------------------------|


A G C D E F E
A G C D E F E

[Chorus]

A                        G C
I got a date with the needle
                       G
outside Helen's pharmacy
A                     G C
I had a fight with my ego
                             G
the pain is growing constantly now
A                         G C
I signed a deal with The Devil
                       G
He took away my misery so
A                      G C
I got a date with a needle
                       G
outside Helen's pharmacy

[Verse 1]

A                                           G C
Now Batman's an alcoholic, Spidey's on methodone
                                                      G
I tried to reach the X-men but they didn't pay the phone
A                                                     G C
and if I go to Mickey Mouse he's gonna nail me to the cops
                                                       G
I may leave down the drain, but I don't hang out with rats
A                                G C
I work half of my day (THAT'S RIGHT!!)
                         G
and what I'm trying to say
A                                  G C
is that I'm floating more than swimmin'
                                      G
if this is reality I'd rather be daydreamin' now


[Chorus]

A                        G C
I got a date with the needle
                       G
outside Helen's pharmacy
A                     G C
I had a fight with my ego
                             G
the pain is growing constantly now
A                         G C
I signed a deal with The Devil
                       G
He took away my misery so
A                      G C
I got a date with a needle
                       G
outside Helen's pharmacy

[Verse 2]

A                                    G C
Why I can't even walk in my neighborhood?
                            G
There are cops in every corner
A                               G C
Why don't they just leave me alone?
                               G
They allways wanna pull me over.. 
A                              G C
There's this guy across the street,
                           G
he 's a FAT CAPITALISTIC PIG!
A                            G C
He parks his car outside my door,
                                        G
wish I could smash his face on the floor!!
A                           G C
See this b**** right next door,
                            G
she's making fun of my father.
A                        G C
But she doesn't know that I
                                   G
I was selling drugs to her daughter..
A                             G C
No I 'm not gonna take it no more 
A                             G C
No I 'm not gonna take it no more 
A                             G C
No I 'm not gonna take it no more

No more.. 'cause

[Chorus]

A                        G C
I got a date with the needle
                       G
outside Helen's pharmacy
A                     G C
I had a fight with my ego
                             G
the pain is growing constantly now
A                         G C
I signed a deal with The Devil
                       G
He took away my misery so
A                      G C
I got a date with a needle

outside outside outside outside ...


e|12-----12-----12---10-----10-----10---|12-----12-----12---10-----10-----10---|
B|--10-----10-----10---10-----10-----10-|--10-----10-----10---10-----10-----10-|
G|----12-----12----------12-----12------|----12-----12----------12-----12------|
A|--------------------------------------|--------------------------------------|
A|--------------------------------------|--------------------------------------|
E|--------------------------------------|--------------------------------------|

e|12-----12-----12---10-----10-----10---|12-----12-----12---10-----10-----10---|
B|--10-----10-----10---10-----10-----10-|--10-----10-----10---10-----10-----10-|
G|----12-----12----------12-----12------|----12-----12----------12-----12------|
A|--------------------------------------|--------------------------------------|
A|--------------------------------------|--------------------------------------|
E|--------------------------------------|--------------------------------------|

e|12-----12-----12---10-----10-----10---|12-----12-----12---10-----10-----10---|
B|--10-----10-----10---10-----10-----10-|--10-----10-----10---10-----10-----10-|
G|----12-----12----------12-----12------|----12-----12----------12-----12------|
A|--------------------------------------|--------------------------------------|
A|--------------------------------------|--------------------------------------|
E|--------------------------------------|--------------------------------------|


A G C G
A G C G
A G C G

            
            
Suggest correction
Creating personal tab
Creating personal tab
You can edit any tab online and save it as your Personal.

You can edit, replace or remove any tab part or add personal notes – all changes will be seen only by you.

Personal tabs can be accessed anytime from any device, even offline.
Learn more »
Give kudos to tab author, rate the tab!
1 2 3 4 5
comments
print report bad tab
guest
You may want to rate the tab now too:
select rating
Wanna post a correction for this tab? Suggest correction