Oops, an error
Loading. Please wait.

Hey There Bomb Tab

238 views 1 this week
no commentswrite comment
1 2 3 4 5
please rate
add to favorites
launch autoscroll
font size
0
reset
how to read this tab
guitar tuner
Autoscroll
slow
fast
+/-
esc
set tempo
stop
Help us to improve Ultimate-Guitar.com Take our survey!
×
Author
additional info: this is melbourne based band but they have played many gigs around
Australia with bands such as, The Cops and Dallas Crane. They were also the support
band for the Stereophonics.


Hey There Bomb - 67 Special

Tabbed by son_of_page
Please rate and comment.



Intro:

e|------------------------------------------------|
B|------------------------------------------------|
G|--------------------2-2-2-2-2-2-2-2-2--4-5-4-2--|
D|-4-4-4-4-4-4-4-4-4--2-2-2-2-2-2-2-2-2--4-5-4-2--|   X2
A|-4-4-4-4-4-4-4-4-4--0-0-0-0-0-0-0-0-0--2-3-2-0--|
E|-2-2-2-2-2-2-2-2-2------------------------------|
    PM . . . . . . .    PM . . . . . . .




Verse:

e|------------------------------------------------|
B|------------------------------------------------|
G|--------------------2-2-2-2-2-2-2-2-2--4-5-4-2--|
D|-4-4-4-4-4-4-4-4-4--2-2-2-2-2-2-2-2-2--4-5-4-2--|   X4
A|-4-4-4-4-4-4-4-4-4--0-0-0-0-0-0-0-0-0--2-3-2-0--|
E|-2-2-2-2-2-2-2-2-2------------------------------|
    PM . . . . . . .    PM . . . . . . .


e|---------------------------------------------------------------------|
B|---------------------------------------------------------------------|
G|------------------2-2-2-2-2-2-2-2--7-7-7-7-7-7-7-7—-8-8-8-8-8-8-8-8--|
D|-4-4-4-4-4-4-4-4--2-2-2-2-2-2-2-2--7-7-7-7-7-7-7-7--8-8-8-8-8-8-8-8--|
A|-4-4-4-4-4-4-4-4--0-0-0-0-0-0-0-0--5-5-5-5-5-5-5-5--6-6-6-6-6-6-6-6--|
E|-2-2-2-2-2-2-2-2-----------------------------------------------------|
    PM . . . . . .    PM . . . . .     PM . . . . .     PM . . . . . .





Chorus:

e|---------------------------------------------------------------------|
B|---------------------------------------------------------------------|
G|-4-4-4-4-4-4-4-4--7-7-7-7-7-7-7-7—-----------------------------------|
D|-4-4-4-4-4-4-4-4--7-7-7-7-7-7-7-7—-7-7-7-7-7-7-7-7--2-2-2-2-2-2-2-2--|
A|-2-2-2-2-2-2-2-2--5-5-5-5-5-5-5-5--7-7-7-7-7-7-7-7--2-2-2-2-2-2-2-2--|
E|-----------------------------------5-5-5-5-5-5-5-5--0-0-0-0-0-0-0-0--|





Verse 2:

Guitar 1
e|-------7b9--|
B|--5b7-------|
G|------------|
D|------------|
A|------------|
E|------------|

Guitar 2
e|------------------------------------------------|
B|------------------------------------------------|
G|--------------------2-2-2-2-2-2-2-2-2--4-5-4-2--|
D|-4-4-4-4-4-4-4-4-4--2-2-2-2-2-2-2-2-2--4-5-4-2--|   X2
A|-4-4-4-4-4-4-4-4-4--0-0-0-0-0-0-0-0-0--2-3-2-0--|
E|-2-2-2-2-2-2-2-2-2------------------------------|
    PM . . . . . . .    PM . . . . . . .

e|---------------------------------------------------------------------|
B|---------------------------------------------------------------------|
G|------------------2-2-2-2-2-2-2-2--7-7-7-7-7-7-7-7—-8-8-8-8-8-8-8-8--|
D|-4-4-4-4-4-4-4-4--2-2-2-2-2-2-2-2--7-7-7-7-7-7-7-7--8-8-8-8-8-8-8-8--|
A|-4-4-4-4-4-4-4-4--0-0-0-0-0-0-0-0--5-5-5-5-5-5-5-5--6-6-6-6-6-6-6-6--|
E|-2-2-2-2-2-2-2-2-----------------------------------------------------|
    PM . . . . . .    PM . . . . .     PM . . . . .     PM . . . . . .



Chorus:

e|---------------------------------------------------------------------|
B|---------------------------------------------------------------------|     X2
G|-4-4-4-4-4-4-4-4--7-7-7-7-7-7-7-7—-----------------------------------|
D|-4-4-4-4-4-4-4-4--7-7-7-7-7-7-7-7—-7-7-7-7-7-7-7-7--2-2-2-2-2-2-2-2--|
A|-2-2-2-2-2-2-2-2--5-5-5-5-5-5-5-5--7-7-7-7-7-7-7-7--2-2-2-2-2-2-2-2--|
E|-----------------------------------5-5-5-5-5-5-5-5--0-0-0-0-0-0-0-0--|




Bridge:

e|-------------------|
B|-------------------|
G|---------------4---|
D|-4-4-4-4-4-4-4-4---|     X2
A|-4-4-4-4-4-4-4-2---|
E|-2-2-2-2-2-2-2-----|


Guitar Solo 1:
e|------------------------4b----7b---------------|
B|------------------------------------9b---------|
G|------------------------------------------4b---|
D|--------------------7/3---7/3---7/3---7/3------|
A|-----------------------------------------------|
E|-2b---4b---6b----------------------------------|




Verse 3:

e|-----------------------------------|
B|-----------------7---------4-------|
G|-----------------7---------4-------|
D|-4-------7—------7---------4-------|     X2
A|-4-------7—------5---------2-------|
A|-2-------5-------------------------|



Chorus:

e|--------------------------------------------------------------------|
B|--------------------------------------------------------------------|
G|-4-4-4-4-4-4-4-4--7-7-7-7-7-7-7-7—----------------------------------|
D|-4-4-4-4-4-4-4-4--7-7-7-7-7-7-7-7—-7-7-7-7-7-7-7-7--2-2-2-2-2-2-2-2-|  X2
A|-2-2-2-2-2-2-2-2--5-5-5-5-5-5-5-5--7-7-7-7-7-7-7-7--2-2-2-2-2-2-2-2-|
E|-----------------------------------5-5-5-5-5-5-5-5--0-0-0-0-0-0-0-0-|



Guitar Solo 2:

e|-8p7p5-------8p7p5-------7b-7b-7b-7b-7b-7b-7b-7b-7b-7b-------------------|
B|-------------------------------------------------------------------------|
G|------7-6-7--------7-6-7-------------------------------------------------|
D|-------------------------------------------------------7-9-7----7-9-7----|
A|-------------------------------------------------------------9--------9--|
E|-------------------------------------------------------------------------|

Guitar 2:

e|---------------------------------------------------------------------|
B|---------------------------------------------------------------------|
G|-4-4-4-4-4-4-4-4--7-7-7-7-7-7-7-7—-----------------------------------|
D|-4-4-4-4-4-4-4-4--7-7-7-7-7-7-7-7—-7-7-7-7-7-7-7-7--2-2-2-2-2-2-2-2--|
A|-2-2-2-2-2-2-2-2--5-5-5-5-5-5-5-5--7-7-7-7-7-7-7-7--2-2-2-2-2-2-2-2--|
E|-----------------------------------5-5-5-5-5-5-5-5--0-0-0-0-0-0-0-0--|


Outro:

Guitar 1
e|----------------------|
B|----------------------|
G|-------------------9--|
D|--10-9-7----10-9-7----|  X2
A|---------9------------|
E|----------------------|


Guitar2
e|-------------------|
B|-------------------|
G|---------------4---|
D|-4-4-4-4-4-4-4-4---|     X4
A|-4-4-4-4-4-4-4-2---|
E|-2-2-2-2-2-2-2-----|
Suggest correction
Give kudos to tab author, rate the tab!
1 2 3 4 5
comments
print report bad tab
guest
You may want to rate the tab now too:
select rating
Please do not post tabs as comments. Select "correction" instead!