Oops, an error
Loading. Please wait.

No Apologies tab

by '68
100 views 15 this week
no commentswrite comment
1 2 3 4 5
1 last vote to show rating
add to favorites
×
Save as Personal and add changes to this tab that will be seen only by you. Learn more ›
×
You can save this tab as Personal to edit and correct it or add notes. All changes will be seen only by you. Learn more »
launch autoscroll
font size
0
reset
how to read this tab
guitar tuner
edit
Autoscroll
slow
fast
+/-
esc
set tempo
stop
About this tab version
Couldn't find this tab anywhere else so I learned the song myself to the best of my ability. Was this info helpful? Yes No
I haven't gotten the song fully down, but the basics are here. All the parts are here but
you'll just have to figure out the variations on each section.

[Intro]
C |---------------------------------------------------------------------------|
G |---------------------------------------------------------------------------|
D#|---------------------------------------------------------------------------|
A#|10-8-10-8-5---------------------------------------------------3------------|
F |--------------------------------------------------3-----0-3h5---5-3--------|
C |------------00xxx9-5--00xxx9-3h5--00xxx9-5--0-3h5---5-3--------------------|
This is the basics of the intro, there are variations that I haven't totally figured out yet.

C |---------------------------------------------------------------------------|
G |---------------------------------------------------------------------------|
D#|---------------------------------------------------------------------------|
A#|2----2222----2-----2222-----------------------3----------------------------|
F |2----2222----2-----2222-----------3-----0-3h5---5-3------------------------|
C |0----0000----0-----0000-----0-3h5---5-3------------------------------------|
"And dare I say..."

C |---------------------------------------------------------------------------|
G |---------------------------------------------------------------------------|
D#|---------------------------------------------------------------------------|
A#|22--------22----------22--------------------------3------------------------|
F |22--------22----------22--------------3-----0-3h5---5-3--------------------|
C |00xxx9-5--00xxx9-3h5--00xxx9-5--0-3h5---5-3--------------------------------|
I believe the next part is the same as the intro but with the open C string changed to the chord.

[Chorus]
C |---------------------------------------------------------------------------|
G |---------------------------------------------------------------------------|
D#|---------------------------------------------------------------------------|
A#|2----2222----2-----2222-----------------------3----------------------------|
F |2----2222----2-----2222-----------3-----0-3h5---5-3------------------------|
C |0----0000----0-----0000-----0-3h5---5-3------------------------------------|
"And dare I say..."

C |---------------------------------------------------------------------------|
G |---------------------------------------------------------------------------|
D#|---------------------------------------------------------------------------|
A#|22222-7-10-22222-7-10\9--22222-7-10-555555-444444--------------------------|
F |22222-7-10-22222-7-10\9--22222-7-10-555555-444444--------------------------|
C |00000-5-8--00000-5-8-\7--00000-5-8--333333-222222--------------------------|
"When they take me away..."

C |---------------------------------------------------------------------------|
G |---------------------------------------------------------------------------|
D#|---------------------------------------------------------------------------|
A#|22222-7-10-22222-7-10\9--22222-7-10-555555-444444--2-----------------------|
F |22222-7-10-22222-7-10\9--22222-7-10-555555-444444--2-----------------------|
C |00000-5-8--00000-5-8-\7--00000-5-8--333333-222222--0-----------------------|
                                      |Repeat these |
                                       3 times

These chords might not be 100% correct but they're at least close.
That's pretty much all the parts that I could figure out to this song. I don't play guitar, I just have one.

************************************

| x   Mute open
| h   Hammer-on
| \   Slide down

************************************

            
            
Suggest correction
Creating personal tab
Creating personal tab
You can edit any tab online and save it as your Personal.

You can edit, replace or remove any tab part or add personal notes – all changes will be seen only by you.

Personal tabs can be accessed anytime from any device, even offline.
Learn more »
Give kudos to tab author, rate the tab!
1 2 3 4 5
comments
print report bad tab
guest
You may want to rate the tab now too:
select rating
Wanna post a correction for this tab? Suggest correction