Oops, an error
Loading. Please wait.

Ese Beso Tab

527 views 1 this week
no commentswrite comment
1 2 3 4 5
2 more votes to show rating
add to favorites
×
Save as Personal and add changes to this tab that will be seen only by you. Learn more ›
launch autoscroll
font size
0
reset
how to read this tab
guitar tuner
Autoscroll
slow
fast
+/-
esc
set tempo
stop
INTRO

     A#           G          D#        C
e|-------------------------------------------------------------|
B|-------------------------------------------------------------|
G|----------------------------8---------5----------------------|
D|------8----------5--------8---8-----5---5--------------------|
A|----8---8------5---5----6---------3--------------------------|
D|--6----------3-----------------------------------------------|


    A#           G          D#         C        A#
e|-------------------------------------------------------------|
B|-------------------------------------------------------------|
G|----------------------------8---------5----------------------|
D|------8----------5--------8---8-----5---5-----8--------------|
A|----8---8------5---5----6---------3-----------8--------------|
D|--6----------3--------------------------------6--------------|


e|-------------------------------------------------------------|
B|--------------------------11--9--7---------------------------|
G|--9--7--6--7--9--7--6--7------------9--7--6--7---------------|
D|-------------------------------------------------------------| X2
A|-------------------------------------------------------------|
D|-------------------------------------------------------------|

MIENTRAS SE TOCA ESTE PUNTEO, LA 2º GUITARRA TOCA LAS SIGUIENTES NOTAS:

   A#   D   D# D# D C  
e|----------------------------------|
B|----------------------------------|
G|------7---8---8-7-5---------------|
D|--8---7---8---8-7-5---------------|
A|--8---5---6---6-5-3---------------|  
D|--6-------------------------------|


*TAMBIEN ESTE RIFF SE TOCA EN TODA LA PARTE 'A' DE LA CANCION.


PARTE B

   G  D#  A#A# D G     D# A# C
e|-----------------------------------|
B|-----------------------------------|
G|-----8---------------8-------------|
D|--5--8--8--8-7-555---8--8--10------|
A|--5--6--8--8-7-555---6--8--10------| X2
D|--3-----6--6-5-333------6--8-------|



LA PARTE SKA (SIN DISTORSION)


e|--6----6----|            
B|--6----6----|        
G|--6----8----|            
D|--8----8----|            
A|--8----6----|            
D|--6----X----|          * NOTA: 1º LA DE ARRIBA UNA VEZ Y LUEGO 
                                  LA 2º. ASI 2 VECES
                     
e|--3----3----|
B|--3----3----|
G|--3----5----|  
D|--5----5----|  
A|--5----3----|
D|--3----X----|


DESPUES DEL SKA...

CON PALM MUTE

   A#    G   D#   C
e|----------------------------|
B|----------------------------|
G|------------8----3----------|
D|--8----5----8----5----------|  X2
A|--8----5----6----3----------|
D|--6----3--------------------|

UN PEQUEÑO PUNTEO DESPUES DEL 1º RIFF CON PALM MUTE

e|-------------------------------------------------------------|
B|-------------------------------------------------------------|
G|-------------------------------------------------------------|
D|---8--10--8--7--8----12--13--12------------------------------|
A|---------------------------------13--------------------------|
D|-------------------------------------------------------------|
Suggest correction
Give kudos to tab author, rate the tab!
1 2 3 4 5
comments
print report bad tab
guest
You may want to rate the tab now too:
select rating
Wanna post a correction for this tab? Suggest correction