Oops, an error
Loading. Please wait.

Prinsesa tab

version 2
version 2

Whole song

14,755 views 6 this week
2 commentsread comments
1 2 3 4 5
x 3
add to favorites
×
Save as Personal and add changes to this tab that will be seen only by you. Learn more ›
×
You can save this tab as Personal to edit and correct it or add notes. All changes will be seen only by you. Learn more »
launch autoscroll
font size
0
reset
how to read this tab
guitar tuner
edit
Autoscroll
slow
fast
+/-
esc
set tempo
stop
Prinsesa
6 cycle Mind

Tuning: Eb

Intro: D D9/C# C G
e|-------------14-------------14-------------14-15-14--------|
B|-15----15-17----15----15-17----15----15-17----------17-15--|
G|----14-------------14-------------14-----------------------|
D|-----------------------------------------------------------|
A|-----------------------------------------------------------|
E|-----------------------------------------------------------|

e|----------------14-------------14-------------14-15-14--------------|
B|----15----15-17----15----15-17----15----15-17----------17-15----15--|
G|-14-----14-------------14-------------14---------------------14-----|
D|--------------------------------------------------------------------|
A|--------------------------------------------------------------------|
E|--------------------------------------------------------------------|

Verse 1: D D9/C# C G
Nakaupo s'ya sa isang madilim na sulok
Ewan ko ba kung bakit sa libo-libong babaeng nandoon
Wala pang isang minuto, nahulog na ang loob ko sa'yo

D D9/C# C G
e|--------3-2-0----|
B|--------------3--|
G|-----------------|
D|-----------------|
A|-----------------|
E|-----------------|

Verse 2: D D9/C# C G
Gusto ko sanang marinig ang tinig mo
Umasa na rin na sana'y mahawakan ko ang palad mo
Gusto ko sanang lumapit kundi lang sa lalaking kayakap mo


Chorus: A G
Dalhin mo ako sa iyong palasyo
Maglakad tayo sa hardin ng 'yong kaharian
Wala man akong pag-aari pangako kong
Habang-buhay kitang pagsisilbihan
                Gm
O aking prinsesa
e|-------------------------------------|
B|------------------------------14/15--|
G|------------14/15-14-12-11-----------|
D|---------------------------14--------|
A|-------------------------------------|
E|-------------------------------------|

Intro

Adlib: D D9/C# C G
e|-2-3-5-7-5-3-2---3p2----------10-12/14--|
B|-3-5-7-8-7-5-3-3-3---3--------12-14/15--|
G|---------------2-----2---(2x)-----------|
D|----------------------------------------|
A|----------------------------------------|
E|----------------------------------------|

Verse 3: D D9/C# C G
'Di ako makatulog
Naisip ko ang ningning ng'yong mata
Nasa isip kita buong umaga, buong magdamag
Sana'y parati kang tanaw
O ang sakit isipin ito'y isang panaginip
Panaginip lang

Chorus

Outro:
  D        D9/C#    C     G  D          D9/C#     C         G
e|-------------------------------------------------------------10--|
B|---------------------------------10--------------------10-12-10--|
G|----------------------------9/11----11-9-7-9-7/9--9/11----12-----|
D|-------12--/14-12----12------------------------------------------|
A|-12h14------------14---------------------------------------------|
E|-----------------------------------------------------------------|

  D      D9/C#   C   G    D        D9/C#  C     G
e|-------10-12-14-15--12-----10-10-12-14-15-14------------------|
B|-10-12-10-10-15-----12--10-10-10-10-15-15-15------------------|
G|-9--11------------------9-------------------------------------|
D|----------------------------------------------12/14-12----12--|
A|-------------------------------------------------------14-----|
E|--------------------------------------------------------------|

Intro

tabbed by: Antonin Deala
email: antonindeala@yahoo.com

I love you Aerese!

            
            
Suggest correction
Creating personal tab
Creating personal tab
You can edit any tab online and save it as your Personal.

You can edit, replace or remove any tab part or add personal notes – all changes will be seen only by you.

Personal tabs can be accessed anytime from any device, even offline.
Learn more »
Give kudos to tab author, rate the tab!
1 2 3 4 5
comments
print report bad tab
2 comments total.
-1 reply
Tear_Here87 10 Feb 16, 2007 07:54 PM

kung cnu ka man...tae tabs mo...tang ina mo nag lagay ka pa...hahahaha

0 reply
kyle_05 102 May 15, 2007 03:38 AM

aztig! 5 stars!!! hahah! lufet!!!

guest
Wanna post a correction for this tab? Suggest correction