Oops, an error
Loading. Please wait.

Sige Chords

version 2
version 2
69,073 views 165 this week
4 commentsread comments
1 2 3 4 5
x 26
add to favorites
×
Save as Personal and add changes to this tab that will be seen only by you. Learn more ›
×
You can save this tab as Personal to edit and correct it or add notes. All changes will be seen only by you. Learn more »
save as personal
new!
launch autoscroll
font size
0
reset
transpose
0
reset
display chords
guitar tuner
Autoscroll
slow
fast
+/-
esc
set tempo
stop
Strumming
There is no strumming pattern for this song yet. and get +5 IQ
[Intro]

E|---------------------------------------------|
B|---------------------------------------------|
G|----------------------------9--8--7--5--7----|   x2
D|--10----7----5----5---------9--8--7--5--7----|
A|--10----7----5----5---------7--6--5--3--5----|
E|--8-----5----3----7--------------------------|

E|---------------------------------------------|
B|---------------------------------------------|
G|---------------------------------------------|   
D|--10----7----5----5--------------------------|
A|--10----7----5----5--------------------------|
E|--8-----5----3----7--------------------------|


[Verse 1]

  C     Em      
Sige, 'pag kasama ka naman
       Am                 F
Kitang kita ko ang ating kasiyahan            (down strum)
  C     Em
Sige, 'wag na nating pigilan
       Am                 F
At 'di magtatagal tayo ay liligaya


[Refrain]

Em   Am            Em    Am
Okay lang naman ang ating usapan
         Em   Am               F
Hindi na lang babalikan ang nakaraan
      F
Ang nakaraan


[chorus]

C       Em
Ayos lang basta't kasama
Am               F
Konting alak lang kahit walang pulutan
C       Em
Ang minsan naaalala
Am               F
'Di magtatagal tayo ay liligaya


[Verse 2]

Sige, pagpatuloy niyo na lang
Unti unting lunurin sa kasiyahan        (same as verse1)
Sige, pagpasensyahan na lang
Mga pumipigil sa ating ligaya


[Refrain]

Em   Am            Em    Am
Okay lang naman ang ating usapan
         Em   Am               F
Hindi na lang babalikan ang nakaraan
      F
Ang nakaraan


[chorus]

C       Em
Ayos lang basta't kasama
Am               F
Konting alak lang kahit walang pulutan
C       Em
Ang minsan naaalala
Am               F
'Di magtatagal tayo ay liligaya


[Solo]


[Refrain]

Em   Am            Em    Am
Okay lang naman ang ating usapan
         Em   Am               F
Hindi na lang babalikan ang nakaraan
      F
Ang nakaraan


[chorus] x2

C       Em
Ayos lang basta't kasama
Am               F
Konting alak lang kahit walang pulutan
C       Em
Ang minsan naaalala
Am               F
'Di magtatagal tayo ay liligaya


[Outro]same as intro

E|---------------------------------------------|
B|---------------------------------------------|
G|----------------------------9--8--7--5--7----|   x2
D|--10----7----5----5---------9--8--7--5--7----|
A|--10----7----5----5---------7--6--5--3--5----|
E|--8-----5----3----7--------------------------|

E|---------------------------------------------|
B|---------------------------------------------|
G|---------------------------------------------|   
D|--10----7----5----5--------------------------|
A|--10----7----5----5--------------------------|
E|--8-----5----3----7--------------------------|


*just listen to the song to figure out the right strumming, it's easy!
Suggest correction
comments
print report bad tab
4 comments total. Showing first comments.
0 reply
ZONE4ever 10 Dec 22, 2006 11:41 PM

astig ung tab m0h! pare! pan0h bah ung strumming sa ch0rus sa refrain?

0 reply
rakista_chris16 10 Mar 10, 2007 07:25 PM

pls. pakilinawan ung intro

0 reply
c.guzman26 18 Aug 12, 2010 05:11 AM

astig.. hehe

guest
Wanna post a correction for this tab? Suggest correction