Oops, an error
Loading. Please wait.

Upside Down tab

version 1
version 1

Whole song

Interactive

56,834 views 54 this week
70 commentsread comments
1 2 3 4 5
x 26
add to favorites
×
Save as Personal and add changes to this tab that will be seen only by you. Learn more ›
×
You can save this tab as Personal to edit and correct it or add notes. All changes will be seen only by you. Learn more »
launch autoscroll
font size
0
reset
how to read this tab
guitar tuner
edit
Autoscroll
slow
fast
+/-
esc
set tempo
stop
Author
Song       :  Upside Down
Band       :  6cyclemind
Tabbed by  :  Robert Simon Uy!!!!
----------------------------------------------------------------------------
***********Sory talaga sa mali kong tab nung una..inedit ko na to***********

[Guitar Legend]
h - hammer on
p - pull off
s - slide
+ - harmonic

[Guitars]
Guitar 1 : Rhythm Guitar(acoustic guitar)
Guitar 2 : Lead Guitar(electric guitar)
Guitar 3 : Extra Guitar(not shown in the music video)

*******************Note: this song have a diff'rent tuning******************

[use this]
Tuning : (it's 1 fret lower)
Guitar 1 : Eb,Bb,Gb,Db,Ab,Eb
Guitar 2 : Eb,Bb,Gb,Db,Ab,Eb
Guitar 3 : Eb,Bb,Gb,Db,Ab,Eb

   (pls try not to use bars while doing the chords..use your 4 fingers..)

[Intro]
Guitar 2 :
eb|----------0----0---0-----0-----0--0-2-0-----|
Bb|-4h5-5--4---------------------------------5-|
Gb|-------------4---2---2s4---4s6----------4---|
Db|--------------------------------------------|
Ab|--------------------------------------------|
Eb|--------------------------------------------|

eb|--------0----0---0----0---0--2-0-----|
Bb|-5-5--4----------------------------5-|
Gb|-----------4---2----4---6--------4---|
Db|-------------------------------------|
Ab|-------------------------------------|
Eb|-------------------------------------|

Guitar 1 :
eb|-0-0-0-0-0-0-0-0-------------------5-5-5-5-5-5-5-5--7-7-7-7-7-7-7-7-|
Bb|-0-0-0-0-0-0-0-0--5-5-5-5-5-5-5-5--x-x-x-x-x-x-x-x--x-x-x-x-x-x-x-x-|
Gb|-1-1-1-1-1-1-1-1--4-4-4-4-4-4-4-4--6-6-6-6-6-6-6-6--8-8-8-8-8-8-8-8-|2x
Db|-2-2-2-2-2-2-2-2--6-6-6-6-6-6-6-6--7-7-7-7-7-7-7-7--9-9-9-9-9-9-9-9-|
Ab|-2-2-2-2-2-2-2-2--6-6-6-6-6-6-6-6--7-7-7-7-7-7-7-7--9-9-9-9-9-9-9-9-|
Db|-0-0-0-0-0-0-0-0----------------------------------------------------|

Guitar 3 :
eb|---0-----0-----0-----0-----0-----0-----0-----0-----0-----0-----0-----|
Bb|-----5-----5-----5-----5-----5-----5-----5-----5-----5-----5-----5---|
Gb|---------------------------------------------------------------------|
Db|---------------------------------------------------------------------|
Ab|-------------------------------------------------0-----0-----0-----0-|
Eb|-0-----0-----0-----0-----4-----4-----4-----4-------------------------|

eb|---0-----0-----0-----|
Bb|-----5-----5-----5---|
Gb|---------------------|
Db|---------------------|
Ab|---------------------|
Eb|-7-----7-----7-----7-|

eb|-0-----0-----0-----0----0-----0-----0-----0-----0-----0-----0-----0-----|
Bb|---5-----5-----5-----5----5-----5-----5-----5-----5-----5-----5-----5---|
Gb|------------------------------------------------------------------------|
Db|------------------------------------------------------------------------|
Ab|----------------------------------------------------0-----0-----0-----0-|
Eb|-----0-----0-----0-----4----4-----4-----4-----4-------------------------|

eb|---0-----0-----0-----|
Bb|-----5-----5-----5---|
Gb|---------------------|
Db|---------------------|
Ab|---------------------|
Eb|-7-----7-----7-----7-|

[Verse]
Guitar 1 and 2 :
eb|-0-0-0-0-0-0-0-0-------------------5-5-5-5-5-5-5-5--7-7-7-7-7-7-7-7-|
Bb|-0-0-0-0-0-0-0-0--5-5-5-5-5-5-5-5--x-x-x-x-x-x-x-x--x-x-x-x-x-x-x-x-|
Gb|-1-1-1-1-1-1-1-1--4-4-4-4-4-4-4-4--6-6-6-6-6-6-6-6--8-8-8-8-8-8-8-8-|
Db|-2-2-2-2-2-2-2-2--6-6-6-6-6-6-6-6--7-7-7-7-7-7-7-7--9-9-9-9-9-9-9-9-|4x
Ab|-2-2-2-2-2-2-2-2--6-6-6-6-6-6-6-6--7-7-7-7-7-7-7-7--9-9-9-9-9-9-9-9-|
Db|-0-0-0-0-0-0-0-0----------------------------------------------------|

[Refrain]
Guitar 2 :
eb|--------------------------------------------------------------------|
Bb|-9-10-9-7~~-------------------------9-10-9--------------------------|
Gb|-------------------------------------------9~~----------------------|
Db|--------------------------------------------------------------------|
Ab|--------------------------------------------------------------------|
Eb|--------------------------------------------------------------------|

eb|--------------------------------------------------------------------|
Bb|-9-10-9-7~~-------------------------9-10-9--------10s12~~~----------|
Gb|-------------------------------------------9~~h10~------------------|
Db|--------------------------------------------------------------------|
Ab|--------------------------------------------------------------------|
Eb|--------------------------------------------------------------------|

Guitar 1 :
eb|-4-4-4-4-4-4-4-4-------------------5-5-5-5-5-5-5-5--7-7-7-7-7-7-7-7-|
Bb|-5-5-5-5-5-5-5-5--5-5-5-5-5-5-5-5--x-x-x-x-x-x-x-x--x-x-x-x-x-x-x-x-|
Gb|-6-6-6-6-6-6-6-6--4-4-4-4-4-4-4-4--6-6-6-6-6-6-6-6--8-8-8-8-8-8-8-8-|
Db|-6-6-6-6-6-6-6-6--6-6-6-6-6-6-6-6--7-7-7-7-7-7-7-7--9-9-9-9-9-9-9-9-|
Ab|------------------6-6-6-6-6-6-6-6--7-7-7-7-7-7-7-7--9-9-9-9-9-9-9-9-|
Eb|--------------------------------------------------------------------|

eb|-4-4-4-4-4-4-4-4-------------------5-5-5-5-5-5-5-5--7-7-7-7-7-7-7-7-|
Bb|-5-5-5-5-5-5-5-5--5-5-5-5-5-5-5-5--x-x-x-x-x-x-x-x--x-x-x-x-x-x-x-x-|
Gb|-6-6-6-6-6-6-6-6--4-4-4-4-4-4-4-4--6-6-6-6-6-6-6-6--8-8-8-8-8-8-8-8-|
Db|-6-6-6-6-6-6-6-6--6-6-6-6-6-6-6-6--7-7-7-7-7-7-7-7--9-9-9-9-9-9-9-9-|
Ab|------------------6-6-6-6-6-6-6-6--7-7-7-7-7-7-7-7--9-9-9-9-9-9-9-9-|
Eb|--------------------------------------------------------------------|

Guitar 3 :
(ang number sa taas ng tab ay para sa volume..1-mahina 2 3 4 5-malakas) 
(start sa chord A hanggang B)
      1  1  1  1  1  1  2  2  2  2  3  3  3  3  3  3
eb|-+12+12+12+12+12+12+12+12+12+12+12+12+12+12+12+12-|
Bb|--------------------------------------------------|
Gb|--------------------------------------------------|
Db|--------------------------------------------------|
Ab|--------------------------------------------------|
Eb|--------------------------------------------------|

(start sa chord A hanggang B)
      1  1  1  1  2  2  2  2  3  3  3  3  4  4  4  4  5
eb|-+12+12+12+12+12+12+12+12+12+12+12+12+12+12+12+12-12-|
Bb|-----------------------------------------------------|
Gb|-----------------------------------------------------|
Db|-----------------------------------------------------|
Ab|-----------------------------------------------------|
Eb|-----------------------------------------------------|

[Chorus]
Guitars 1 and 2 :
eb|-0-0-0-0-0-0-0-0-------------------5-5-5-5-5-5-5-5--7-7-7-7-7-7-7-7-|
Bb|-0-0-0-0-0-0-0-0--5-5-5-5-5-5-5-5--x-x-x-x-x-x-x-x--x-x-x-x-x-x-x-x-|
Gb|-1-1-1-1-1-1-1-1--4-4-4-4-4-4-4-4--6-6-6-6-6-6-6-6--8-8-8-8-8-8-8-8-|2x
Db|-2-2-2-2-2-2-2-2--6-6-6-6-6-6-6-6--7-7-7-7-7-7-7-7--9-9-9-9-9-9-9-9-|
Ab|-2-2-2-2-2-2-2-2--6-6-6-6-6-6-6-6--7-7-7-7-7-7-7-7--9-9-9-9-9-9-9-9-|
Db|-0-0-0-0-0-0-0-0----------------------------------------------------|

Guitar 3 :
eb|-------------4---4---5---4-------5-----5-----5-----5-----|
Bb|-5-----5---------------------5-----5-----5-----5-----5---|
Gb|---4-----4-----4---4---4---4---4-----4-----4-----4-----4-|
Db|---------------------------------------------------------|
Ab|---------------------------------------------------------|
Eb|-----0-----0---------------------------------------------|

eb|-7-----7-----7-----7-----5-----5-----5-----5-----|
Bb|---5-----5-----5-----5-----5-----5-----5-----5---|
Gb|-----4-----4-----4-----4-----4-----4-----4-----4-|
Db|-------------------------------------------------|
Ab|-------------------------------------------------|
Eb|-------------------------------------------------|

eb|-------------4---4---5---4-------5-----5-----5-----5-----|
Bb|-5-----5---------------------5-----5-----5-----5-----5---|
Gb|---4-----4-----4---4---4---4---4-----4-----4-----4-----4-|
Db|---------------------------------------------------------|
Ab|---------------------------------------------------------|
Eb|-----0-----0---------------------------------------------|

eb|-7-----7-----7-----7-----5-----5-----5-----5-----|
Bb|---5-----5-----5-----5-----5-----5-----5-----5---|
Gb|-----4-----4-----4-----4-----4-----4-----4-----4-|
Db|-------------------------------------------------|
Ab|-------------------------------------------------|
Eb|-------------------------------------------------|

then intro..like this :
Guitar 1 :(this is the strumming pattern for intro)
eb|-0-0-0-0-0-0-0-0-------------------5-5-5-5-5-5-5-5--7-7-7-7-7-7-7-7-|
Bb|-0-0-0-0-0-0-0-0--5-5-5-5-5-5-5-5--x-x-x-x-x-x-x-x--x-x-x-x-x-x-x-x-|
Gb|-1-1-1-1-1-1-1-1--4-4-4-4-4-4-4-4--6-6-6-6-6-6-6-6--8-8-8-8-8-8-8-8-|
Db|-2-2-2-2-2-2-2-2--6-6-6-6-6-6-6-6--7-7-7-7-7-7-7-7--9-9-9-9-9-9-9-9-|
Ab|-2-2-2-2-2-2-2-2--6-6-6-6-6-6-6-6--7-7-7-7-7-7-7-7--9-9-9-9-9-9-9-9-|
Db|-0-0-0-0-0-0-0-0----------------------------------------------------|

Guitar 2 :
eb|--------0----0---0-----0-----0--0-2-0-----|
Bb|-5-5--4---------------------------------5-|
Gb|-----------4---2---2s4---4s6----------4---|
Db|------------------------------------------|
Ab|------------------------------------------|
Eb|------------------------------------------|

Guitar 3 :
eb|---0-----0-----0-----0-----0-----0-----0-----0-----0-----0-----0-----|
Bb|-----5-----5-----5-----5-----5-----5-----5-----5-----5-----5-----5---|
Gb|---------------------------------------------------------------------|
Db|---------------------------------------------------------------------|
Ab|-------------------------------------------------0-----0-----0-----0-|
Eb|-0-----0-----0-----0-----4-----4-----4-----4-------------------------|

eb|---0-----0-----0-----|
Bb|-----5-----5-----5---|
Gb|---------------------|
Db|---------------------|
Ab|---------------------|
Eb|-7-----7-----7-----7-|

Verse 2:(same as verse 1)
Guitar 1 and 2 :
eb|-0-0-0-0-0-0-0-0-------------------5-5-5-5-5-5-5-5--7-7-7-7-7-7-7-7-|
Bb|-0-0-0-0-0-0-0-0--5-5-5-5-5-5-5-5--x-x-x-x-x-x-x-x--x-x-x-x-x-x-x-x-|
Gb|-1-1-1-1-1-1-1-1--4-4-4-4-4-4-4-4--6-6-6-6-6-6-6-6--8-8-8-8-8-8-8-8-|
Db|-2-2-2-2-2-2-2-2--6-6-6-6-6-6-6-6--7-7-7-7-7-7-7-7--9-9-9-9-9-9-9-9-|4x
Ab|-2-2-2-2-2-2-2-2--6-6-6-6-6-6-6-6--7-7-7-7-7-7-7-7--9-9-9-9-9-9-9-9-|
Db|-0-0-0-0-0-0-0-0----------------------------------------------------|

Refrain 2 :(walang guitar 3)
Guitar 1 :
eb|-4-4-4-4-4-4-4-4-------------------5-5-5-5-5-5-5-5--7-7-7-7-7-7-7-7-|
Bb|-5-5-5-5-5-5-5-5--5-5-5-5-5-5-5-5--x-x-x-x-x-x-x-x--x-x-x-x-x-x-x-x-|
Gb|-6-6-6-6-6-6-6-6--4-4-4-4-4-4-4-4--6-6-6-6-6-6-6-6--8-8-8-8-8-8-8-8-|2x
Db|-6-6-6-6-6-6-6-6--6-6-6-6-6-6-6-6--7-7-7-7-7-7-7-7--9-9-9-9-9-9-9-9-|
Ab|------------------6-6-6-6-6-6-6-6--7-7-7-7-7-7-7-7--9-9-9-9-9-9-9-9-|
Eb|--------------------------------------------------------------------|

Guitar 2 :
eb|--------------------------------------------------------------------|
Bb|-9-10-9-7~~-------------------------9-10-9--------------------------|
Gb|-------------------------------------------9~~----------------------|
Db|--------------------------------------------------------------------|
Ab|--------------------------------------------------------------------|
Eb|--------------------------------------------------------------------|

eb|--------------------------------------------------------------------|
Bb|-9-10-9-7~~-------------------------9-10-9----10s12~~~--------------|
Gb|-------------------------------------------9~~----------------------|
Db|--------------------------------------------------------------------|
Ab|--------------------------------------------------------------------|
Eb|--------------------------------------------------------------------|

Chorus 2 :(same as first chorus)
Guitars 1 and 2 :
eb|-0-0-0-0-0-0-0-0-------------------5-5-5-5-5-5-5-5--7-7-7-7-7-7-7-7-|
Bb|-0-0-0-0-0-0-0-0--5-5-5-5-5-5-5-5--x-x-x-x-x-x-x-x--x-x-x-x-x-x-x-x-|
Gb|-1-1-1-1-1-1-1-1--4-4-4-4-4-4-4-4--6-6-6-6-6-6-6-6--8-8-8-8-8-8-8-8-|2x
Db|-2-2-2-2-2-2-2-2--6-6-6-6-6-6-6-6--7-7-7-7-7-7-7-7--9-9-9-9-9-9-9-9-|
Ab|-2-2-2-2-2-2-2-2--6-6-6-6-6-6-6-6--7-7-7-7-7-7-7-7--9-9-9-9-9-9-9-9-|
Db|-0-0-0-0-0-0-0-0----------------------------------------------------|

Guitar 3 :
eb|-------------4---4---5---4-------5-----5-----5-----5-----|
Bb|-5-----5---------------------5-----5-----5-----5-----5---|
Gb|---4-----4-----4---4---4---4---4-----4-----4-----4-----4-|
Db|---------------------------------------------------------|
Ab|---------------------------------------------------------|
Eb|-----0-----0---------------------------------------------|

eb|-7-----7-----7-----7-----5-----5-----5-----5-----|
Bb|---5-----5-----5-----5-----5-----5-----5-----5---|
Gb|-----4-----4-----4-----4-----4-----4-----4-----4-|
Db|-------------------------------------------------|
Ab|-------------------------------------------------|
Eb|-------------------------------------------------|

eb|-------------4---4---5---4-------5-----5-----5-----5-----|
Bb|-5-----5---------------------5-----5-----5-----5-----5---|
Gb|---4-----4-----4---4---4---4---4-----4-----4-----4-----4-|
Db|---------------------------------------------------------|
Ab|---------------------------------------------------------|
Eb|-----0-----0---------------------------------------------|

eb|-7-----7-----7-----7-----5-----5-----5-------5---|
Bb|---5-----5-----5-----5-----5-----5-----5---5---5-|
Gb|-----4-----4-----4-----4-----4-----4-----4-------|
Db|-------------------------------------------------|
Ab|-------------------------------------------------|
Eb|-------------------------------------------------|

[Bridge]
Guitar 3 :
eb|-4--4-5-4---4--4-5-4---7---7------------------------------------------7-|
Bb|----------5----------5-----------5-7-9--5-7-9--5-7-7s9-7-5-5-7-7s9-7-5--|
Gb|------------------------------------------------------------------------|
Db|------------------------------------------------------------------------|
Ab|------------------------------------------------------------------------|
Eb|------------------------------------------------------------------------|

eb|-4--4-5-4---4--4-5-4---7---7-7------------------------------------------|
Bb|----------5----------5------------5-7-9--5-7-9--5-7-7s9-7-5-5-7-7s9-7-5-|
Gb|------------------------------------------------------------------------|
Db|------------------------------------------------------------------------|
Ab|------------------------------------------------------------------------|
Eb|------------------------------------------------------------------------|

Guitars 1 and 2 :
eb|-4-4-4-4-4-4-4-4-4-4-4-4-4-4-4-4-0-0-0-0-0-0-0-0-0-0-0-0-0-0-0-0-|
Bb|-5-5-5-5-5-5-5-5-5-5-5-5-5-5-5-5-0-0-0-0-0-0-0-0-0-0-0-0-0-0-0-0-|
Gb|-6-6-6-6-6-6-6-6-6-6-6-6-6-6-6-6-1-1-1-1-1-1-1-1-1-1-1-1-1-1-1-1-|
Db|-6-6-6-6-6-6-6-6-6-6-6-6-6-6-6-6-2-2-2-2-2-2-2-2-2-2-2-2-2-2-2-2-|
Ab|---------------------------------2-2-2-2-2-2-2-2-2-2-2-2-2-2-2-2-|
Eb|---------------------------------0-0-0-0-0-0-0-0-0-0-0-0-0-0-0-0-|

eb|-4-4-4-4-4-4-4-4-4-4-4-4-4-4-4-4-0-0-0-0-0-0-0-0--7-7--7-7-|-0-|
Bb|-5-5-5-5-5-5-5-5-5-5-5-5-5-5-5-5-0-0-0-0-0-0-0-0--x-x--x-x-|-0-|
Gb|-6-6-6-6-6-6-6-6-6-6-6-6-6-6-6-6-1-1-1-1-1-1-1-1--8-8--8-8-|-1-|
Db|-6-6-6-6-6-6-6-6-6-6-6-6-6-6-6-6-2-2-2-2-2-2-2-2--9-9--9-9-|-2-|
Ab|---------------------------------2-2-2-2-2-2-2-2--9-9--9-9-|-2-|
Eb|---------------------------------0-0-0-0-0-0-0-0-----------|-0-|

Last Chorus : (after 25 seconds, start playing..)
Guitar 3 :
eb|-----12---12------12---12-------12----12-------12----12-|
Bb|-9-9----9-----9-9----9----10-10----10----12-12----12----|
Gb|--------------------------------------------------------|
Db|--------------------------------------------------------|2x
Ab|--------------------------------------------------------|
Eb|--------------------------------------------------------|

Guitar 1 and 2:
eb|-0-0-0-0-0-0-0-0-------------------5-5-5-5-5-5-5-5--7-7-7-7-7-7-7-7-|
Bb|-0-0-0-0-0-0-0-0--5-5-5-5-5-5-5-5--x-x-x-x-x-x-x-x--x-x-x-x-x-x-x-x-|
Gb|-1-1-1-1-1-1-1-1--4-4-4-4-4-4-4-4--6-6-6-6-6-6-6-6--8-8-8-8-8-8-8-8-|
Db|-2-2-2-2-2-2-2-2--6-6-6-6-6-6-6-6--7-7-7-7-7-7-7-7--9-9-9-9-9-9-9-9-|2x
Ab|-2-2-2-2-2-2-2-2--6-6-6-6-6-6-6-6--7-7-7-7-7-7-7-7--9-9-9-9-9-9-9-9-|
Db|-0-0-0-0-0-0-0-0----------------------------------------------------|

Last Chord :
eb|-0-|
Bb|-0-|
Gb|-1-|
Db|-2-|
Ab|-2-|
Eb|-0-|

[Lyrics]
[Verse 1]
   I’ve been spending some time,
   Thinking i’d be alright
   Don’t know if I could really make it tonight
   Lie awake in the dark, 
   Come down then I start
   Thinkin' about you is almost breakin' my heart
   I don’t know where I went wrong,
   Or what’s goin' on
   Baby, I feel like our love’s lost tonight
   Should I stay, should I go?
   Well, I really don’t know
   Lately I’ve been missing you so

[Refrain]
   Baby, you don’t understand
   Our love lies lost but,
   You’re still holdin' my hand
   Ohh and then you walk away
   Just tonight,
   I want you to stay

[Chorus]
   You’re turning me on,
   You turn me around
   You turn my whole world upside down
   You’re turning me on,
   You turn me around
   You turn my whole world upside down

[Verse 2]
   Everytime I hurt you,
   Well it’s hurting me too
   Don’t know if I could really stay here tonight
   Tired of thinking of you,
   I never think that you do
   Tell me what am I supposed to do
   Well, I just wanted to say
   That I need you today
   Tell me it’s all gonna work out alright
   I don’t know where I should I start
   But with all of my heart
   Baby let me be your lover tonight

[Refrain]
   Baby, you don’t understand
   Our love lies lost but,
   You’re still holdin' my hand
   Ohh and then you walk away
   Just tonight,
   I want you to stay

[Chorus]
   You’re turning me on,
   You turn me around
   You turn my whole world upside down
   You’re turning me on,
   You turn me around
   You turn my whole world upside down
   
[Bridge]
   Oh you know,(you're turning me on)
   You turn me upside down (you turn me around)
   You know, (you're turning me on)
   You turn me upside down
  
   (You’re turning me on, you turn me around
   You turn my whole world upside down
   You’re turning me on, you turn me around
   You turn my whole world upside down)
  
[Chorus]
   You’re turning me on, you turn me around
   You turn my whole world upside down
   (You know the.....  this much is true)
   You’re turning me on, you turn me around
   You turn my whole world upside down

*******************Tnx sa lahat na nag comment..tnx tlaga*******************
-------------------------------------EnD------------------------------------
| ------------------------------------------------------------------------ |
| |        Thx...Plsss rate this tab of mine...Comentz dN poH..          | |
| |     Hi 2 all those from NCSHS(Naga City Science High School)..       | |
| ------------------------------------------------------------------------ |
----------------------------------------------------------------------------
         ©Copyright2007©       Robert Simon Uy™        ®Registered®

            
            
Suggest correction
Creating personal tab
Creating personal tab
You can edit any tab online and save it as your Personal.

You can edit, replace or remove any tab part or add personal notes – all changes will be seen only by you.

Personal tabs can be accessed anytime from any device, even offline.
Learn more »
comments
print report bad tab
70 comments total. Showing first comments.
0 reply
10guitarz84 153 May 01, 2007 09:10 PM

Commentz poh......
Post namn kau..plsssssssssss.....

0 reply
popoybibbo 20 May 02, 2007 08:23 PM

Suggest ko lang yung sa part ng bridge..
C#m G#m F#m Bmaj
Maybe this is more accurate. Thanks!

0 reply
uther3 10 May 02, 2007 10:06 PM

nice tol...gling tabs mo! actually gnyn din ung tipa ko eh! post ko rin sana kaso nauna ka lang! galing tol! tama Eb din ung tune ng guitar.. 4 stars sau tol! :)

guest
You may want to rate the tab now too:
select rating
Wanna post a correction for this tab? Suggest correction