Oops, an error
Loading. Please wait.

A Farewell To The Perfect Score Tab

547 views 6 this week
no commentswrite comment
1 2 3 4 5
please rate
add to favorites
launch autoscroll
font size
0
reset
how to read this tab
guitar tuner
Tab Pro tools
  • play this tab
  • loop segment
  • change instrument
  • show fretboard
  • metronome
×
Best way to learn
"A Farewell To The Perfect Score"
Autoscroll
slow
fast
+/-
esc
set tempo
stop
Contributor
Difficulty
Tuning
intermediate
D A D G B E
SEVEN ANGELS SEVEN PLAGUES - A FAREWELL TO THE PERFECT SCORE

E|----------------------------------------|
B|----------------------------------------|
G|----------------------------------------|    
D|----------------------------------------|              
A|-0-0-0-0---0-0-0-0---0-0--0-0--0-0--0-0-|
D|-0-0-0-0---0-0-0-0---0-0--0-0--0-0--0-0-|
   PM PM PM  PM PM PM  PM   PM   PM   PM

E|-----------------------------------------------------------|
B|-----------------------------------------------------------|
G|-----------------------------------------------------------|    
D|-14--5--10-10-10-10-10-10--7/8---------7/8-----------------|              
A|-12--3--8--8--8--8--8--8---5/6-0-0-0-0-5/6-0-0-0-0-0-0-0-0-|
D|-12--3--8--8--8--8--8--8-------0-0-0-0-----0-0-0-0-0-0-0-0-|
                                 PM PM       PM PM PM PM PM

E|--------------------------|-------------------------------|
B|--------------------------|-----x4----------4-4---4-4---4-|
G|--------------------------|-----------------7-7---7-7---7-|    
D|-14--5--10-10-10-10-10-10-|-------------------------------|              
A|-12--3--8--8--8--8--8--8--|-1p0-0-0-1-0-1-0-----0-----0---|
D|-12--3--8--8--8--8--8--8--|-1p0-0-0-1-0-1-0-----0-----0---|
                                  PM    PM        PM    PM

E|-----------------------------------------------------------|
B|-----------------------------------------------------------|
G|-----------------------------------------------------------|    
D|-14--5--10-10-10-10-10-10--7/8---------7/8-----------------|              
A|-12--3--8--8--8--8--8--8---5/6-0-0-0-0-5/6-0-0-0-0-0-0-0-0-|
D|-12--3--8--8--8--8--8--8-------0-0-0-0-----0-0-0-0-0-0-0-0-|
                                 PM PM       PM PM PM PM PM

E|--------------------------|-------------------------------|
B|--------------------------|-----x4----------4-4---4-4---4-|
G|--------------------------|-----------------7-7---7-7---7-|    
D|-14--5--10-10-10-10-10-10-|-------------------------------|              
A|-12--3--8--8--8--8--8--8--|-1p0-0-0-1-0--1-0----0-----0---|
D|-12--3--8--8--8--8--8--8--|-1p0-0-0-1-0--1-0----0-----0---|
                                  PM    PM        PM    PM

    E|----------------|
    B|----------------|
GTR G|----------------|    
 1  D|-0---(LET RING)-|              
    A|-0--------------|
    D|-0--------------|

    E|----------------|
    B|----------------|
GTR G|-5h7p0 x15?-----|    
 2  D|----------------|              
    A|----------------|
    D|----------------|

E|-----------------------------------------|
B|-----------------------------------------|
G|-9-9-9-9-9-9-9-9-9-9-5-5-5-5-5-0-0-0-0-0-|    
D|-----------------------------------------|              
A|-----------------------------------------|
D|-----------------------------------------|

E|-------------------|
B|-----4-------------|
G|-----7-(LET RING)--|   x2 
D|-------------------|              
A|-0-0---------------|
D|-0-0---------------|
   PM

E|-------------------------------------------------|
B|-----4-------------------17-----17-----17-----17-|
G|-----7-------2-----------20-----20-----20-----20-| x4   
D|---------------6-3p2-----------------------------|              
A|-0-0---0-0-0---------0-0----0-0----0-0----0-0----|
D|-0-0---0-0-0---------0-0----0-0----0-0----0-0----|
   PM    PM PM         PM     PM     PM     PM

E|-----------------------------|-3/4 1,2|----6/4---3,4-|
B|-----------------------------|--------|--------------|
G|-----------------------------|-999999-|-999999999999-|    
D|-7777-6666-3333-2222---------|--------|--------------|              
A|---------------------1-0-1-0-|-777777-|-777777777777-|
D|---------------------1-0-1-0-|--------|--------------|
                       P M P M 



E|---------------------------------|
B|---------------------------------|
G|-9-9-9-9-9-9-9-9-7-7-7-7-7-6-7-6-| x2 (CLEAN)   
D|-7-7-7-7-7-7-7-7-7-7-7-7-7-------|              
A|-7-7-7-7-7-7-7-7-7-7-7-7-7-7-7-7-|
D|---------------------------------|

E|---------------------------------------|
B|-10-10-10-10-10-10-10-10-8-8-8-8-7-8-7-|
G|---------------------------------------|    
D|-7--7--7--7--7--7--7--7--7-7-7-7-7-7-7-|  x2 (CLEAN)            
A|---------------------------------------|
D|---------------------------------------|

E|-------------------------------------|
B|-------------------------------------|
G|-12-12-12-12-12-12-12-12-------------|    
D|-10-10-10-10-10-10-10-10-0-----------| 1,3              
A|-8--8--8--8--8--8--8--8--0-(LET RING)|
D|-------------------------0-----------|

E|--------------------------------------------------------|
B|--------------------------------------------------------|
G|-12-12-12-12-12-12-12-12-11/12-12-12-12--11/14-14-14-14-|    
D|-10-10-10-10-10-10-10-10--------------------------------| 2,4             
A|-8--8--8--8--8--8--8--8---------------------------------|
D|--------------------------------------------------------|

E|---------------------------------|
B|---------------------------------|
G|-9-9-9-9-9-9-9-9-7-7-7-7-7-6-7-6-| x2 
D|-7-7-7-7-7-7-7-7-7-7-7-7-7-------|              
A|-7-7-7-7-7-7-7-7-7-7-7-7-7-7-7-7-|
D|---------------------------------|

E|---------------------------------------|
B|-10-10-10-10-10-10-10-10-8-8-8-8-7-8-7-|
G|---------------------------------------|    
D|-7--7--7--7--7--7--7--7--7-7-7-7-7-7-7-|  x2          
A|---------------------------------------|
D|---------------------------------------|

E|--------------|
B|--------------|
G|--------------|    
D|-0------------|              
A|-0-(LET RING)-|
D|-0------------|

E|------------------|
B|------------------|
G|----------8p7-----|    
D|-8p7----------8-7-|              
A|-----8-7----------|
D|------------------|
       PM       PM

    E|----------------|
    B|----------------|
GTR G|---------7(P.H)-| x20   
 1  D|----------------|              
    A|-0-0-0-0--------|
    D|-0-0-0-0--------|
       PM PM

    E|-----------------------------------------|
    B|-----------------------------------------|
GTR G|---------7p6--9h10 (COME IN ON 5TH TIME)-| x16
 2  D|-----------------------------------------|              
    A|-0-0-0-0---------------------------------|
    D|-0-0-0-0---------------------------------|
        PM PM 

E|---------------|
B|---------------|
G|---------------|    
D|-0-------------|              
A|-0--(LET RING)-|
D|-0-------------|

    E|---------------------------|
    B|---------------------------|
GTR G|-7--7--10--9---------------|  x4  
 1  D|-0--0--0---0--0------------|              
    A|--------------0-(LET RING)-|
    D|--------------0------------|

    E|-------------------|
    B|--(ON FOURTH TIME)-|
    G|-------------------|    
GTR D|-4-4-4-4-4-4-4-4---|              
 2  A|-5-5-5-5-5-5-5-5---|
    D|-0-0-0-0-0-0-0-0---|
       PM PM PM PM PM

E|------------------------------------------------------------|
B|-------------5-5-6-6-6-6-5-5-5-5h6--------------------------|
G|-7-7-7-7-7-7-7-7-7-7-7-7-7-7-7-7-7--------------------------| x3   
D|------------------------------------------------------------|              
A|-5-5-5-5-5-5------------------------------------------------|
D|-0-0-0-0-0-0-----------------------000000000000000000000000-|
   PM PM PM PM PM PM PM PM PM PM PM PM PM PM PM PM PM PM PM 

E|-----------------------------------|
B|-------------5-5-6-6-6-6-5-5-5-5h6-|
G|-7-7-7-7-7-7-7-7-7-7-7-7-7-7-7-7-7-|   
D|-----------------------------------|              
A|-5-5-5-5-5-5-----------------------|
D|-0-0-0-0-0-0-----------------------|
   PM PM PM PM PM PM PM PM PM PM PM   

E|--------------------------------------|
B|--------------------------------------|
G|--------------------------------------|   
D|--------------------------------------|              
A|--------------------------------------|
D|-0-0-0-0--0-0-0-0--0-0--0-0--0-0--0-0-|
   P M P M  P M P M  P M  P M  P M  P M 


E|--------------------------|
B|--------------------------|
G|--------------------------| x4  
D|-14--5--10-10-10-10-10-10-|              
A|-12--3--8--8--8--8--8--8--|
D|-12--3--8--8--8--8--8--8--|


E|--------------------------|-------------------------------|
B|--------------------------|-----x4----------4-4---4-4---4-|
G|--------------------------|-----------------7-7---7-7---7-| x8    
D|-14--5--10-10-10-10-10-10-|-------------------------------|              
A|-12--3--8--8--8--8--8--8--|-1p0-0-0-1-0-1-0-----0-----0---|
D|-12--3--8--8--8--8--8--8--|-1p0-0-0-1-0-1-0-----0-----0---|
                                  PM    PM        PM    PM

    E|--------------|
    B|--------------|
GTR G|--------------|    
 1  D|-0------------|              
    A|-0-(LET RING)-|
    D|-0------------|

    E|-------0-------------3p0-------------------3---3-----0|
    B|------------------------------------------------------|
GTR G|----4----4--------4------4p0--4-----4-----4-4-----4---|    
 2  D|--2---2----2----2--2------------5-----5-------5-----5-|              
    A|0------------0--------------3-----3-----3-------------|
    D|---------------3--------------------------------------|

END
comments
We did not receive enough feedback on this tab! Please rate:
print report bad tab
1 2 3 4 5
I want to post or [tab]
guest
You may want to rate the tab now too:
select rating
Please do not post tabs as comments. Select "correction" instead!