Oops, an error
Loading. Please wait.

Away With Words Tab

version 1
version 1

Whole song

Interactive

255 views 1 this week
no commentswrite comment
1 2 3 4 5
excellent!
x 3
add to favorites
launch autoscroll
font size
0
reset
how to read this tab
guitar tuner
Tab Pro tools
  • play this tab
  • loop segment
  • change instrument
  • show fretboard
  • metronome
×
Best way to learn
"Away With Words"
Autoscroll
slow
fast
+/-
esc
set tempo
stop
Contributor
Difficulty
Tuning
advanced
D A D G B E
e|-------------13----------------------13----------|
B|-------11-------11----11-------11-------11----11-|
G|----14----14-------14-------14----14-------15----| 1,3,5,7
D|-12----------------------12----------------------|
A|-------------------------------------------------|
D|-------------------------------------------------|

e|-------------13----------------------13----------|
B|-------11-------11----11-------11-------11----11-|
G|----14----14-------14-------14----14-------14----| 2,4,6,8
D|-13----------------------13----------------------|
A|-------------------------------------------------|
D|-------------------------------------------------|

e|---------8---------------8---------------8---------------8-------|
B|-----6-----6---6-----6-----6---6-----6-----6---6-----6-----6---6-|
G|---9---9-----9-----9---9-----9-----9---9-----9-----9---9-----9---|
D|-7---------------7---------------8---------------8---------------|
A|-----------------------------------------------------------------|
D|-----------------------------------------------------------------|

e|---------8---------------8-------|
B|-----6-----6---6-----6-----6---6-|
G|---9---9-----9-----9---9-----9---|
D|-7---------------7---------------|
A|---------------------------------|
D|---------------------------------|

e|-------------14----------------------14----------|
B|-------11-------11----11-------11-------11----11-|
G|----15----15-------15-------15----15-------15----|
D|-13----------------------13----------------------|
A|-------------------------------------------------|
D|-------------------------------------------------|

e|-0---------0---------------|
B|---6---------6-------------|
G|-----9---------9-----------|
D|-------7---------7---------| x8
A|-------0---------0---0-0-0-|
D|-------0---------0---0-0-0-|
                       PMP M

e|-----------------------------------------------|
B|-------------------------------6-6-6-6-6-6-6-6-|
G|-10-10-10-10-10-10-10-10-10-10-9-9-9-9-9-9-9-9-|
D|-10-10-10-10-10-10-10-10-10-10-----------------|
A|-8--8--8--8--8--8--8--8--8--8--gradually bend--|
D|-8--8--8--8--8--8--8--8--8--8--and release-----|

-----------------------------------------------------

e|---------8-----------8---------8---|
B|----8-----------8---------8------8-|
G|-10---10-----10---10---10---10-----|
D|-----------------------------------|
A|-----------------------------------|
D|-----------------------------------|

e|-8------12------8------13------12---8---|
B|---8-------8------8-------8-------8---8-|
G|-----10------10-----10------10----------|
D|----------------------------------------|
A|----------------------------------------|
D|----------------------------------------|

x4 distorted, then x4 clean.
----------------------------------------------------

e|--------------------------------------------------|
B|---------------------------------6-6-6-6-6--------|
G|-10-10-10-10-10-10-10-10---------9-9-9-9-9--------|
D|-10-10-10-10-10-10-10-10-0-0-0-0------------------| 1,2,4
A|-8--8--8--8--8--8--8--8--0-0-0-0-bend and release-|
D|-8--8--8--8--8--8--8--8--0-0-0-0------------------|

e|--------------------------------------------------|
B|---------------------------------6-6-6-6-6--------|
G|-------------10-10-10-10---------9-9-9-9-9--------|
D|-------------10-10-10-10-0-0-0-0------------------| 3
A|-88888888888-8--8--8--8--0-0-0-0-bend and release-|
D|-88888888888-8--8--8--8--0-0-0-0------------------|
   PMPMPMPMPMPM

e|--------------------|
B|--------------------|
G|--------------11p10-|
D|----------8p7-------| 1,2,3,5,6,7,8
A|-00000000-----------|
D|-00000000-----------|
   PMPMPMPM

e|----------|
B|----------|
G|----------|
D|----------| 4
A|-00000000-|
D|-00000000-|
   PMPMPMPM

e|----------------------------------|
B|----------------------------------|
G|----------------------------------|
D|-0--------------------------------|
A|-0--------------------------------|
D|-0-------------------pick slide---|

e|--------------------|
B|--------------------|
G|--------------------|
D|--------------------| x9
A|-0-0-1p0-000-0--1p0-|
D|-0-0-1p0-000-0--1p0-|
   P M     P MPM

e|-----------------|
B|-----------------|
G|-----------------|
D|-----------------| x4
A|-1-0-1-3-5-3-0-1-|
D|-1-0-1-3-5-3-0-1-|
   P M P M P M P M

e|------------------------------------|
B|------------------------------------|
G|-----6-------6---------------6----6-|
D|-----5-------5---------------5----5-|
A|-000-4--000--4--0-5-3-0--000-4-00-4-|
D|-000----000-----0-5-3-0--000---00---|
   P M    P M     P M P M  P M   PM

e|-----------------------------|
B|-----10-----10-----10-----10-|
G|-----13-----13-----13-----13-|
D|-----------------------------| x4
A|-0-0----0-0----0-0----0-0----|
D|-0-0----0-0----0-0----0-0----|
   P M    P M    P M    P M

    e|-----------------------------|
    B|-----10-----10-----10-----10-|
GTR G|-----13-----13-----13-----13-|
 1  D|-----------------------------| x2
    A|-0-0----0-0----0-0----0-0----|
    D|-0-0----0-0----0-0----0-0----|
       P M    P M    P M    P M

    e|-----------------|
    B|-----------------|
GTR G|-----------------|
 2  D|-----------------| x4
    A|-1-0-1-3-5-3-0-1-|
    D|-1-0-1-3-5-3-0-1-|
       P M P M P M P M

    e|--------------------|
    B|--------------------|
GTR G|--------------------|
 1  D|-0------------------|
    A|-0------------------|
    D|-0------------------|

    e|--------------------|
    B|-10-----------------|
GTR G|-13-----------------|
 2  D|--------------------|
    A|--------------------|
    D|--------------------|

keep repeating above sporadically

e|---------------------------|
B|---------------------------|
G|---------------------------|
D|-7---------7---------7-----| x4
A|-6-0-0-0-0-6-0-0-0-0-6-0-0-|
D|-7-0-0-0-0-7-0-0-0-0-7-0-0-|
     P M P M   P M P M   P M 

    e|------------------------|
    B|------------------------|
GTR G|------------------------|
 1  D|-7--7--7--7--7-7-7-77-7-| x3
    A|-6--6--6--6--6-6-6-66-6-|
    D|-7--7--7--7--7-7-7-77-7-|

    e|-------------------------|
    B|-11-------11-------11----|
GTR G|----14-14----14-14----14-|
 2  D|-------------------------| x3
    A|-------------------------|
    D|-------------------------|

    e|---------------------------------|
    B|---------------------------------|
GTR G|---------------------------------|
 1  D|-6/7---6/7---6/7---------7\6---7-|
    A|-7/8-0-7/8-0-7/8-0-0-0-0-8\7-0-8-|
    D|-6/7-0-6/8-0-6/7-0-0-0-0-7\6-0-7-|

    e|-------------------------|
    B|-11-------11-------11----|
GTR G|----14-14----14-14----14-|
 2  D|-------------------------| 
    A|-------------------------|
    D|-------------------------|

e|-----------------------------------|
B|-----------------------------------|
G|-----------------------------------|
D|-----------------------------------| x4
A|-0000000000000000-1111111111111111-|
D|-0000000000000000-1111111111111111-|
   PMPMPMPMPMPMPMPM PMPMPMPMPMPMPMPM

e|---|
B|---|
G|---|
D|-0-|
A|-0-|
D|-0-|
comments
We did not receive enough feedback on this tab! Please rate:
print report bad tab
1 2 3 4 5
I want to post or [tab]
guest
You may want to rate the tab now too:
select rating
Please do not post tabs as comments. Select "correction" instead!