Oops, an error
Loading. Please wait.

Until The Day Breathes And The Shadows Flee Tab

200 views 3 this week
no commentswrite comment
1 2 3 4 5
please rate
add to favorites
launch autoscroll
font size
0
reset
how to read this tab
guitar tuner
Autoscroll
slow
fast
+/-
esc
set tempo
stop
Help us to improve Ultimate-Guitar.com Take our survey!
×
Author
Difficulty
Tuning
intermediate
D A D G B E
7 ANGELS 7 PLAGUES - UNTIL THE DAY BREATHES AND THE SHADOWS FLEE

------------------------------------------------------------------

    E|-----------------------------------------------------------|
    B|---------7---------------7------------7---------------7----|
GTR G|-----9-----9----------------9-----9-----9----------------9-|
 1  D|---7---------7------7-----------7---------7------7---------|
    A|-9-------------9--9---9-------9-------------9--9---9-------|
    D|-----------------------------------------------------------|

    E|-----------------------------------------------------------|
    B|-----------------------------------------------------------|
GTR G|-----------------------------------------------------------|
 2  D|-----------------------------------------------------------|
    A|-9---------------------------------------------------------|
    D|-----------------------------------------------------------|

    E|-----------------------------------------------------------|
    B|---------7---------------7------------7---------------7----|
GTR G|-----9-----9----------------9-----9-----9----------------9-|
 1  D|---7---------7------7-----------7---------7------7---------|
    A|-9-------------9--9---9-------9-------------9--9---9-------|
    D|-----------------------------------------------------------|

    E|-----------------------------------------------------------|
    B|-----------------------------------------------------------|
GTR G|-----------------------------------------------------------|
 2  D|---------6----------6-----6-----------9-----------9------9-|
    A|-7---7-------7---7-----7------7---7-------7---7-------7----|
    D|-----------------------------------------------------------|

PLAY SECTION X4
------------------------------------------------------------------

    E|------------------------7------------------------------------|
    B|---------7----------------7-------------7---------------7----|
GTR G|-----9-----9----------------9-------9-----9----------------9-|
 1  D|---7---------7------7---------7---7---------7------7---------|
    A|-9-------------9--9---9---------9-------------9--9---9-------|
    D|-------------------------------------------------------------|

    E|-------------------------------------------------------------|
    B|-------------------------------------------------------------|
GTR G|-------------------------------------------------------------|
 2  D|-------------------------------------------------------------|
    A|-9--------------------9-7-------9------------------9-7-------|
    D|-------------------------------------------------------------|

    E|-----------------------------------------------------------|
    B|---------7---------------7------------7---------------7----|
GTR G|-----9-----9----------------9-----9-----9----------------9-|
 1  D|---7---------7------7-----------7---------7------7---------|
    A|-9-------------9--9---9-------9-------------9--9---9-------|
    D|-----------------------------------------------------------|

    E|-----------------------------------------------------------|
    B|-----------------------------------------------------------|
GTR G|-----------------------------------------------------------|
 2  D|---------6----------6-----6-----------9-----------9------9-|
    A|-7---7-------7---7-----7------7---7-------7---7-------7----|
    D|-----------------------------------------------------------|

PLAY SECTION X2
-------------------------------------------------------------------

    E|--------------------------------------------0-|
    B|---------12----------12----------5----------5-|
GTR G|----------------------------------------------|
 1  D|---7---7-------7---7-------7---7------7---7---|
    A|-9---9-------9---9-------9---9------9---9-----|
    D|----------------------------------------------|

    E|----------------------------------------------|
    B|----------------------------------------------|
GTR G|---9---9---9---9---9---9---9---9---9---9---9--|
 2  D|---7---7---7---7---7---7---7---7---7---7---7--|
    A|---9---9---9---9---9---9---9---9---9---9---9--|
    D|----------------------------------------------|

    E|---------------------------------|
    B|---------------------------------|
GTR G|---------------------------------|
 1  D|-----6-----6---6-----9-----9---9-|
    A|-7-7---7-7---7---7-7---7-7---7---|
    D|---------------------------------|

    E|---------------------------------|
    B|---------------------------------|
GTR G|-9---9---9---9---9---9---9---9---|
 2  D|-6---6---6---6---9---9---9---9---|
    A|-7---7---7---7---7---7---7---7---|
    D|---------------------------------|

PLAY SECTION X2
-----------------------------------------------------------------

    E|---------7-------|-----------------------------|
    B|-----------7---7-|---------7-------------7-----|
GTR G|-----9-------9---|-----9---9---------9---9-----|
1+2 D|---7---7---------|---7---7----7----7---7---7---| X2
    A|-9---------------|-7-------------7-----------7-|
    D|----- x2 --------|-----------------------------|

    E|---------7-------|-----------------------------|
    B|-----------7---7-|---------7-------------7-----|
GTR G|-----9-------9---|-----9---9---------9---9-----|
 1  D|---7---7---------|---7---7----7----7---7---7---|
    A|-9---------------|-7-------------7-----------7-|
    D|----- x2 --------|-----------------------------|

    E|--------------------------------|
    B|--------------------------------|
GTR G|--------------------------------|
 2  D|-7--6--7--6--4----7--6--4--6--7-|
    A|--------------------------------|
    D|--------------------------------|

    E|--------------------------------------------0-|
    B|---------12----------12----------5----------5-|
GTR G|----------------------------------------------|
 1  D|---7---7-------7---7-------7---7------7---7---|
    A|-9---9-------9---9-------9---9------9---9-----|
    D|----------------------------------------------|

    E|-----------------------------------------|
    B|-----------------------------------------|
GTR G|--4---4---4---4---4---4------4---4---4---|
 2  D|-----------------------------------------|
    A|-----------------------------------------|
    D|-----------------------------------------|

    E|------------------------------|
    B|------------------------------|
GTR G|------------------------------|
1+2 D|-7----------------------------|
    A|-7----------------------------|
    D|-7----------------------------|
Suggest correction
Give kudos to tab author, rate the tab!
1 2 3 4 5
comments
print report bad tab
guest
You may want to rate the tab now too:
select rating
Wanna post a correction for this tab? Suggest correction