Oops, an error
Loading. Please wait.

Young Till I Die Tab

version 1
version 1

Whole song

Interactive

6,678 views 6 this week
1 commentread comment
1 2 3 4 5
x 4
add to favorites
launch autoscroll
font size
0
reset
how to read this tab
guitar tuner
×
Best way to learn
"Young Till I Die"
Autoscroll
slow
fast
+/-
esc
set tempo
stop
7 SECONDS: Young 'till Idie
Verse
e|--------------------------------------------------------------------|
B|--------------------------------------------------------------------|
G|--------6-----------------------------------------------------------|
D|--9-----4-----------------------------------------------------------|
A|--7--9-----6--------------------------------------------------------|
E|-----7-----4--------------------------------------------------------|

Pre-chorus
e|--------------------------------------------------------------------|
B|--------------------------------------------------------------------|
G|--------------------------------------------------------------------|
D|--------------------------------------------------------------------|
A|--4--6--------------------------------------------------------------|
E|--2--4--------------------------------------------------------------|

Chorus
e|--------------------------------------------------------------------|
B|--------------------------------------------------------------------|
G|--------------------------------------------------------------------|
D|--9-----6-----------------------------------------------------------|
A|--7--9--4--6--------------------------------------------------------|
E|-----7-----4--------------------------------------------------------|

Lyrics:

Waiting long 'till 21.
For me this fight has just begun.
Go to clubs, drink alcohol.
makes you feel like you're ten feet tall.

I don't want to grow up.
I'm never getting old.
I'd rather work 9 to 5
than drink to stay alive.

I'm gonna stay young 'till I die.

Grow up fast, you'lldie soon.
I'LL NEVER FUCKING BE LIKE YOU.
Finish school, grab a wife,
you'll be dead before you're
thirty-five.

I don't want to grow up.
I'm never getting old.
I'd rather work 9 to 5
than drink to stay alive.

I'm gonna stay young 'till I die.
I'm gonna stay young 'till I die.
Suggest correction
comments
print report bad tab
1 comment total.
0 reply
Bradzo3000 41 Apr 24, 2013 08:44 AM

The verse is actually the same as the chorus (the 3rd chord is C# not F#).
Good tab!

Verse
e|--------------------------------------------------------------------|
B|--------------------------------------------------------------------|
G|--------------------------------------------------------------------|
D|--9-----6-----------------------------------------------------------|
A|--7--9--4--6--------------------------------------------------------|
E|-----7-----4--------------------------------------------------------|

guest
You may want to rate the tab now too:
select rating
Wanna post a correction for this tab? Suggest correction