Oops, an error
Loading. Please wait.

Free chords

286 views 1 this week
no commentswrite comment
1 2 3 4 5
1 last vote to show rating
add to favorites
×
Save as Personal and add changes to this tab that will be seen only by you. Learn more ›
×
You can save this tab as Personal to edit and correct it or add notes. All changes will be seen only by you. Learn more »
launch autoscroll
font size
0
reset
transpose
0
reset
simplify chords
display chords
guitar tuner
edit
Autoscroll
slow
fast
+/-
esc
set tempo
stop
Strumming
There is no strumming pattern for this song yet. and get +5 IQ
Artist: 7eventh Time Down
Album: Just Say Jesus
Song: "Free"


Verse1:
D#5
 It started out when I was just 
a young kid
B5
 No matter what I did
I couldn't get enough of it
D#5
 I was a broken one, a trigger 
On a loaded gun
B5
 I could show you my scars
And how to get some


Prechorus:
B5
 I've never been one to fight 
Fair on my own
             C#5
But this has taken me down, 
      C#5   B5  G#5  F#5
Now I can't get home


Chorus:
            D#5
I've been a dark horse
Running for way too long
B5
Chasing down dreams
Where I don't belong
    F#5
And I could try
For the rest of my life
   G#5
To give up everything
        B5  C#5 B5
While I beg to die
            D#5
I've been a wild one
Playing for way too long
B5
In and outta games where 
I've never belonged
   F#5
So tell me what it means
            G#5
Can anybody tell me what it 
    C#5  F#5
Means to be Free


Riff: [Please Listen To The Rythmn Pattern]

E|----------|----------|---|
B|----------|----------|---|
G|----------|----------|---|
D|-6/8--8-8-|-6/8--8-8-|-4-|
A|-4/6--6-6-|-4/6--6-6-|-2-|
E|----------|----------|---|

E|----------|----------|---------|
B|----------|----------|---------|
G|----------|----------|----11---|
D|-6/8--8-8-|-6/8--8-8-|-11----4-|
A|-4/6--6-6-|-4/6--6-6-|-------2-|
E|----------|----------|---------|
 
Verse2:
D#5
 A chain without a lock 
I don't know how to stop
B5
 Underneath my skin
A hunger that will never quit
D#5
 I was a broken one
a Trigger on a loaded gun
B
 I can show my scars and how 
To get some


Prechorus:
B5
 I've never been one to fight 
Fair on my own
             C#5
But this has taken me down, 
      C#5   B5  G#5  F#5
Now I can't get home


Chorus:
            D#5
I've been a dark horse
Running for way too long
B5
Chasing down dreams
Where I don't belong
    F#5
And I could try
For the rest of my life
   G#5
To give up everything
        B5  C#5 B5
While I beg to die
            D#5
I've been a wild one
Playing for way too long
B5
In and outta games where 
I've never belonged
   F#5
So tell me what it means
            G#5
Can anybody tell me what it 
    C#5  F#5
Means to be Free
 

Riff: [Please Listen To The Rythmn Pattern]
E|----------|----------|---|
B|----------|----------|---|
G|----------|----------|---|
D|-6/8--8-8-|-6/8--8-8-|-4-|
A|-4/6--6-6-|-4/6--6-6-|-2-|
E|----------|----------|---|

E|----------|----------|---------|
B|----------|----------|---------|
G|----------|----------|----11---|
D|-6/8--8-8-|-6/8--8-8-|-11----4-|
A|-4/6--6-6-|-4/6--6-6-|-------2-|
E|----------|----------|---------|
 

Bridge:
B5                  F#5
 All I wanted to see was you 
Face to face
B5                     C#5
 All you wanted from me was 
The chase

Rap: [[I dont have the lyrics of 
Two lines but this riff is played 
On those lines please see to it]]

E|---------------------|---------------------|
B|---------------------|---------------------|
G|---------------------|---------------------|
D|-8-8-x-x-x-8-8-x-x-x-|-4-4-x-x-x-4-4-x-x-x-|
A|-6-6-x-x-x-6-6-x-x-x-|-2-2-x-x-x-2-2-x-x-x-|
E|---------------------|---------------------|

D#5
 I'm a dark horse on the 
Coarse on the run
B5
 A dark force chasing me like 
I'm Forrest Gump
D#5
 I'm on the floor but I'm 
Begging for the Lord to come
B5
 I'm in a war for my soul but I 
Ain't got a gun
B5
   I need a cure for the disease 
That I suffer from

(I said)
C#5
 Who will set me free (Who)
Can I find someone


Chorus:
            D#5
I've been a dark horse
Running for way too long
B5
Chasing down dreams
Where I don't belong
    F#5
And I could try
For the rest of my life
   B5
To give up everything
        B5  C#5 B5
While I beg to die
            D#5
I've been a wild one
Playing for way too long
B5
In and outta games where 
I've never belonged
   F#5
So tell me what it means
            G#5
Can anybody tell me what it 
    C#5  F#5
Means to be Free

 
Riff: [Please Listen To The Rythmn Pattern]
E|----------|----------|---|
B|----------|----------|---|
G|----------|----------|---|
D|-6/8--8-8-|-6/8--8-8-|-4-|
A|-4/6--6-6-|-4/6--6-6-|-2-|

E|----------|----------|---| 
E|----------|----------|---------|
B|----------|----------|---------|
G|----------|----------|----11---|
D|-6/8--8-8-|-6/8--8-8-|-11----4-|
A|-4/6--6-6-|-4/6--6-6-|-------2-|
E|----------|----------|---------|
 
E|----------|----------|
B|----------|----------|
G|----------|----------|
D|-6/8--8-8-|-6/8--8-8-|
A|-4/6--6-6-|-4/6--6-6-|
E|----------|----------|

End

Thank You

God Bless
Suggest correction
Creating personal tab
Creating personal tab
You can edit any tab online and save it as your Personal.

You can edit, replace or remove any tab part or add personal notes – all changes will be seen only by you.

Personal tabs can be accessed anytime from any device, even offline.
Learn more »
Give kudos to tab author, rate the tab!
1 2 3 4 5
comments
print report bad tab
guest
You may want to rate the tab now too:
select rating
Wanna post a correction for this tab? Suggest correction