Oops, an error
Loading. Please wait.

Goodnight Sweet Dream Tab

25 views 3 this week
no commentswrite comment
1 2 3 4 5
3 more votes to show rating
add to favorites
launch autoscroll
font size
0
reset
how to read this tab
guitar tuner
Autoscroll
slow
fast
+/-
esc
set tempo
stop
Help us to improve Ultimate-Guitar.com Take our survey!
×
Author
Difficulty
About this tab version
This is my first attempt at tabbing. listen to the song to get the timing down. let me know what could be changed or improved. Was this info helpful? Yes No
[Intro] (x2)

e|---------------------------------------------------------------------------|
B|---------------------------------------------------------------------------|
G|---------7-------5---------------5---------------7--------5-------------5--| 
D|-------------------------7---------------7------------------------7--------|  
A|---5-----------------------------------------------------------------------|   
E|---------------------------------------------------------------------------|    
                                                                                    
e|-------------------------------------------------------|                         
B|-------------------------------------------------------|                       
G|---------10---------------------9----------------------|                       
D|-------------10---------------------9------------------|                      
A|---5/8---------------------5/7-------------------------|                     
E|-------------------------------------------------------|                  


************************************

| x   Dead note
| (n) Ghost note
| /   Slide up
| \   Slide down

************************************
Suggest correction
Give kudos to tab author, rate the tab!
1 2 3 4 5
comments
print report bad tab
guest
You may want to rate the tab now too:
select rating
Wanna post a correction for this tab? Suggest correction