Oops, an error
Loading. Please wait.

Liar tab

version 2
version 2

Whole song

Interactive

by 8mm
556 views 1 this week
1 commentread comment
1 2 3 4 5
3 more votes to show rating
add to favorites
×
Save as Personal and add changes to this tab that will be seen only by you. Learn more ›
×
You can save this tab as Personal to edit and correct it or add notes. All changes will be seen only by you. Learn more »
launch autoscroll
font size
0
reset
how to read this tab
guitar tuner
edit
Autoscroll
slow
fast
+/-
esc
set tempo
stop
So this is my first tab Ive ever submitted on here, the other 
one on here was close but not accurate so I tabbed 
out the whole thing instead of having trails back 
saying play this one here on this part. 
Anyway Ive checked it over a few times and it seems right to me :)
Its extremely easy so great for beginners

e---------------------------------------------------------|
b---------------------------------------------------------|
g--------0-------0-----0--------0------0------0-----------|
d------4-------4--------------4—-----4--------------------|
a----5-------5-------5------3------3-------3--------------|
E---------------------------------------------------------|

e---------------------------------------------------------|
b---------------------------------------------------------|
g--------0------0-----0-----0------0----------------------|
d------4------4—----------4-----4----9/7------------------|
a----7------7-----7-----5------5--------------------------|
E---------------------------------------------------------|

e---------------------------------------------------------|
b---------------------------------------------------------|
g--------0-------0-----0--------0------0------0-----------|
d------4-------4--------------4—-----4--------------------|
a----5-------5-------5------3------3-------3--------------|
E---------------------------------------------------------|

e---------------------------------------------------------|
b---------------------------------------------------------|
g--------0------0-----0-----0-----------------------------|
d------4------4—----------4---4---------------------------|
a----7------7-----7-----5---------5-----------------------|
E---------------------------------------------------------|


e---------------------------------------------------------|
b---------------------------------------------------------|
g--------0-------0-----0--------0------0------0-----------|
d------4-------4--------------4—-----4--------------------|
a----5-------5-------5------3------3-------3--------------|
E---------------------------------------------------------|

e---------------------------------------------------------|
b---------------------------------------------------------|
g--------0------0-----0-----0------0-----0----------------|
d------4------4—----------4-----4-------------------------|
a----7------7-----7-----5------5------5-------------------|
E---------------------------------------------------------|

e---------------------------------------------------------|
b---------------------------------------------------------|
g--------0-------0-----0--------0------0------0-----------|
d------4-------4--------------4—-----4--------------------|
a----5-------5-------5------3------3-------3--------------|
E---------------------------------------------------------|

e---------------------------------------------------------|
b---------------------------------------------------------|
g--------0------0-----0-----0------0-----0----------------|
d------4------4—----------4-----4-------------------------|
a----7------7-----7-----5------5------5-------------------|
E---------------------------------------------------------|

e---------------------------------------------------------|
b---------------------------------------------------------|
g--------0-------0-----0--------0------0------0-----------|
d------4-------4--------------4—-----4--------------------|
a----5-------5-------5------3------3-------3--------------|
E---------------------------------------------------------|

e---------------------------------------------------------|
b---------------------------------------------------------|
g--------0------0-----0-----0------0----------------------|
d------4------4—----------4-----4----9/7------------------|
a----7------7-----7-----5------5--------------------------|
E---------------------------------------------------------|

e---------------------------------------------------------|
b---------------------------------------------------------|
g--------0-------0-----0--------0------0------0-----------|
d------4-------4--------------4—-----4--------------------|
a----5-------5-------5------3------3-------3--------------|
E---------------------------------------------------------|

e---------------------------------------------------------|
b---------------------------------------------------------|
g--------0------0-----0-----0------0-----0----------------|
d------4------4—----------4-----4-------------------------|
a----7------7-----7-----5------5------5-------------------|
E---------------------------------------------------------|

e---------------------------------------------------------|
b---------------------------------------------------------|
g--------0-------0-----0--------0------0------0-----------|
d------4-------4--------------4—-----4--------------------|
a----5-------5-------5------3------3-------3--------------|
E---------------------------------------------------------|

e---------------------------------------------------------|
b---------------------------------------------------------|
g--------0------0-----0-----0------0-----0----------------|
d------4------4—----------4-----4-------------------------|
a----7------7-----7-----5------5------5-------------------|
E---------------------------------------------------------|

e---------------------------------------------------------|
b---------------------------------------------------------|
g--------0-------0-----0--------0------0------0-----------|
d------4-------4--------------4—-----4--------------------|
a----5-------5-------5------3------3-------3--------------|
E---------------------------------------------------------|

e---------------------------------------------------------|
b---------------------------------------------------------|
g--------0------0-----0-----0------0-----0----------------|
d------4------4—----------4-----4-------------------------|
a----7------7-----7-----5------5------5-------------------|
E---------------------------------------------------------|

e---------------------------------------------------------|
b---------------------------------------------------------|
g--------0-------0-----0--------0------0------0-----------|
d------4-------4--------------4—-----4--------------------|
a----5-------5-------5------3------3-------3--------------|
E---------------------------------------------------------|

e---------------------------------------------------------|
b---------------------------------------------------------|
g--------0------0-----0-----0------0----------------------|
d------4------4—----------4-----4----9/7------------------|
a----7------7-----7-----5------5--------------------------|
E---------------------------------------------------------|

e---------------------------------------------------------|
b---------------------------------------------------------|
g--------0-------0-----0--------0------0------0-----------|
d------4-------4--------------4—-----4--------------------|
a----5-------5-------5------3------3-------3--------------|
E---------------------------------------------------------|

e---------------------------------------------------------|
b---------------------------------------------------------|
g--------0------0-----0-----0------0-----0----------------|
d------4------4—----------4-----4-------------------------|
a----7------7-----7-----5------5------5-------------------|
E---------------------------------------------------------|

e---------------------------------------------------------|
b---------------------------------------------------------|
g--------0-------0-----0--------0------0------0-----------|
d------4-------4--------------4—-----4--------------------|
a----5-------5-------5------3------3-------3--------------|
E---------------------------------------------------------|

e---------------------------------------------------------|
b---------------------------------------------------------|
g--------0------0-----0-----0------0----------------------|
d------4------4—----------4-----4----9/7------------------|
a----7------7-----7-----5------5--------------------------|
E---------------------------------------------------------|

e---------------------------------------------------------|
b---------------------------------------------------------|
g--------0-------0-----0--------0------0------0-----------|
d------4-------4--------------4—-----4--------------------|
a----5-------5-------5------3------3-------3--------------|
E---------------------------------------------------------|

e---------------------------------------------------------|
b---------------------------------------------------------|
g--------0------0-----0-----0------0-----0----------------|
d------4------4—----------4-----4-------------------------|
a----7------7-----7-----5------5------5-------------------|
E---------------------------------------------------------|

e---------------------------------------------------------|
b---------------------------------------------------------|
g--------0-------0-----0--------0------0------0-----------|
d------4-------4--------------4—-----4--------------------|
a----5-------5-------5------3------3-------3--------------|
E---------------------------------------------------------|

e---------------------------------------------------------||
b---------------------------------------------------------||
g--------0------0-----0-----------------------------------||
d------4------4—----------4-------------------------------||
a----7------7-----7-----5---------------------------------||
E---------------------------------------------------------||


            
            
Suggest correction
Creating personal tab
Creating personal tab
You can edit any tab online and save it as your Personal.

You can edit, replace or remove any tab part or add personal notes – all changes will be seen only by you.

Personal tabs can be accessed anytime from any device, even offline.
Learn more »
Give kudos to tab author, rate the tab!
1 2 3 4 5
comments
print report bad tab
1 comment total.
0 reply
echorbadjian 10 Jul 06, 2014 08:36 PM

Nice job! Thanks xD

guest
Wanna post a correction for this tab? Suggest correction