Oops, an error
Loading. Please wait.

Question Everything Bass Tab

version 1
version 1

Whole song

Interactive

119 views 1 this week
no commentswrite comment
1 2 3 4 5
please rate
add to favorites
launch autoscroll
font size
0
reset
guitar tuner
Tab Pro tools
  • play this tab
  • loop segment
  • change instrument
  • show fretboard
  • metronome
Autoscroll
slow
fast
+/-
esc
set tempo
stop
Contributor
Difficulty
8STOP7 :QUESTION   EVERYHING
(BASS TABS)

---INTRO----
(ACOUSTIC INTRO)

---VERSE----------------------------------------------------------|
G-----------------------------------------------------------------|
D-----------------------------------------------------------------|
A--33--3-3--------------------------------------------------------|       X3
E-------------11--1-1-55-5-5-33-3-3-------------------------------|

G------------------------------------------------------------|
D------------------------------------------------------------|
A--33--3-3---------------------------------------------------|
E-------------11--1-1-55-5-5-33-3-3--11111-------------------|

----CHORUS----------------------------------------------------------------------------|
G-------------------------------------------------------------------------------------|
D-------------------------------------------------------------------------------------|
A--33-3-3------------33-3-3----------------------33-3-3-------------------------------|
E------------11-1-1------------------11-1-1------------------55-5-5--1----1-1-(OUTRO--|

-----SOLO------------------------|
G--------------------------------|
D--------------------------------|
A--------------------------------|
E---5---05-3-0-1---3-------------|

----BREAKDOWN-----------------------------------------|
G-----------------------------------------------------|
D-----------------------------------------------------|
A-----------------------------------------------------|
E--55-5-5---55-5-5/11-1-1--11-1-1---------------------|

G---------------------------------------------|
D---------------------------------------------|
A---------------------------------------------|
E--55-5-5--55-5-5/11-1-1--11-1-1/3------------|


SONG STRUCTURE:
1.ACOUSTIC INTRO                            5.CHORUS X1                                9.CHORUS X4
2.VERSE X4                                           6.SOLO X2                           
         10.OUTRO
3.CHORUS X1                                       7.BREAKDOWN
4.VERSE X4                                           8.VERSE X2 -(PAUSE 3 BEAT)
comments
We did not receive enough feedback on this tab! Please rate:
print report bad tab
1 2 3 4 5
I want to post or [tab]
guest
You may want to rate the tab now too:
select rating
Please do not post tabs as comments. Select "correction" instead!