Oops, an error
Loading. Please wait.

Regression Tab

version 2
version 2

Whole song

81 views 1 this week
no commentswrite comment
1 2 3 4 5
excellent!
x 1
add to favorites
launch autoscroll
font size
0
reset
how to read this tab
guitar tuner
Tab Pro tools
  • play this tab
  • loop segment
  • change instrument
  • show fretboard
  • metronome
Autoscroll
slow
fast
+/-
esc
set tempo
stop
Difficulty
Tuning
novice
D A D G B E
DADGBE

Intro/Verse
 |x12|                           :x3:           :x1:
|------------------------------|:--10-10-10-9--:--10-10-10-10--:|
|------------------------------|:--10-10-10-9--:--10-10-10-10--:|
|------------------------------|:--10-10-10-9--:--10-10-10-10--:|
|----------3-3--3-3--3-3--3-3--|:---0--0--0-0--:---0--0--0--0--:|
|--0-4-0---5-5--5-5--5-5--5-5--|:--------------:---------------:|
|--------3---------------------|:--------------:---------------:|
 < -------PM------ >
 
 |x12|                               :x3:           :x1:
|----------------------------------|:--10-10-10-9--:--10-10-10-10--:|
|----------------------------------|:--10-10-10-9--:--10-10-10-10--:|
|----------------------------------|:--10-10-10-9--:--10-10-10-10--:|
|-3-3--3-3--3-3--3-3---------------|:---0--0--0-0--:---0--0--0--0--:|
|-5-5--5-5--5-5--5-5-0-4-0---------|:--------------:---------------:|
|--------------------------3-------|:--------------:---------------:|
 < -------PM------ >

 |x8|                               :x3:|x2|
|---------------------------------|:------------------------:--------------|
|---------------------------------|:------3---3-------------:--------------|
|--8-7-7--8-7-7--8-7-7--8-7-7-----|:------2---2-------------:--------------|
|--0-0-0--0-0-0--0-0-0--0-0-0-6-7-|:------------------------:--------------|
|--0--------------------------6-7-|:-0000---00----0000-0000-:---6-6-6-6-7--|
|--0--------------------------6-7-|:-0000---00----0000-0000-:---6-6-6-6-7--|
                                          < ------PM-------- >

'I would be faking,...'
|-------------------------------------------------------------|
|-------------------------------------------------------------|
|-------------------------------------------------------------|
|-5--------------------0------6-7----0------6-7---------------|
|-5-hold-2-bars--------0------6-7----0------6-7---------------|
|-5--------------------0------6-7----0------6-7---------------|


|-----------------------------------------|
|-----------------------------------------|
|-----------------------------------------|
|-5---------------3------1-----0-0-1------|
|-5---------------3------1-----0-0-1------|
|-5---------------3------1-----0-0-1------|

Silence, then                          
  :x4:          :x3:           :x1:
|:----------9--:--10-10-10-9--:----10-10-10--:|
|:-10-10-10-9--:--10-10-10-9--:----10-10-10--:|
|:-10-10-10-9--:--10-10-10-9--:----10-10-10--:|
|:----------0--:---0--0--0-0--:-----0--0--0--:|
|:-------------:--------------:--------------:|
|:-------------:--------------:--------------:|

|------------------------------------|
|------------------------------------|
|------------------------------------|
|--------3-3--3-3--3-3--3-3----------|
|-4-0----5-5--5-5--5-5--5-5-0-4-0----|
|-----3---------------------------3--|

 |x4|
|-----------------------------------|
|-----------------------------------|
|--8-7-7--8-7-7--8-7-7--8-7-7-------|
|--0-0-0--0-0-0--0-0-0--0-0-0--6-7--|
|--0---------------------------6-7--|
|--0---------------------------6-7--|
comments
We did not receive enough feedback on this tab! Please rate:
print report bad tab
1 2 3 4 5
I want to post or [tab]
guest
You may want to rate the tab now too:
select rating
Please do not post tabs as comments. Select "correction" instead!