Oops, an error
Loading. Please wait.

Satisfied Bass Tab

303 views 1 this week
2 commentsread comments
1 2 3 4 5
please rate
add to favorites
launch autoscroll
font size
0
reset
guitar tuner
Tab Pro tools
  • play this tab
  • loop segment
  • change instrument
  • show fretboard
  • metronome
×
Best way to learn
"Satisfied"
Autoscroll
slow
fast
+/-
esc
set tempo
stop
===============================================================================================
Title        : Satisfied--From In Moderation
Artist/Group : 8 Stops 7
Info         : 4 Strings Standard Bass (Meter=4/4, Key=C, Tempo=100)
Date - Time  : 6/29/2002 - 4:48:26 PM
Created by   : slickdog
===============================================================================================
Drop D tune


wait for drums and guitar: 
G---------------------|
D---------------------|
A---------------------|
D-0-0-0-0-0-0-0-0-0-0-|

 
 
verse part 1:                              
G-------------------------||-
D-------------------------||-
A---5-------5-----------5-||-
D-------0-------0---3h5---||-
                              
 
 
 
verse part 2            2nd time end 
G---------------------||------------|
D---------------------||------------|
A-------7-----------5-||-----------4|
D---0-0---0-6-0-5-5---||-0-0-0-0-0--|
                         
  
 
Chorus:                       end on 2nd time                   
G------------------------------||---------||-
D------------------------------||---------||-
A------------------------------||---------||-
D-0-3-3--0-3-3--0-3-3--0-3-0-5-||-0-3-0-3-||-
                                                   
 
 
This is the break- slap on 2 and slide to 3                                     
G----------------------------------||-
D----------------------------------||-
A----------------------------------||-
D---2S/3-x---2S/3-x---2S/3-0s------||-
 

   
                                       
G---------------------------||------||-
D---------------------------||------||-
A---5-----------5-----------||------||-
D-----0-3-0-3-0---0-3-0-3-0-||-x-0P-||-
   
                                    
chorus: this is extended just listen to the song  
 
 
-----------------------------------------------------------------------------------------------
TABS READING GUIDE:
Note Length (above the bass line):w=whole, h=1/2, q=1/4, e=1/8, s=1/16, t=1/32, .=1.5*previous.
Fingering (below the bass line):1=index, 2=middle, 3=ring, 4=pinkie, 5=thumb.
Special Note Symbols:
   h    = hammer-on from previous note
   p    = pull off from previous note
   /or\ = slide up or down to note
   b    = bend note
   S    = slap the note with the right-hand thumb (left hand if left-handed)
   P    = pop the note with the right hand (left hand if left-handed)
   t    = tap the note with the right hand (left hand if left-handed)
   H    = harmonic
   x    = muted note
   r    = a rest.
===============================================================================================
AdiBASS Tablature Creator (HTML) V.2.0  [p_hadiwijaya@yahoo.com]
Visit http://www.geocities.com/a_desain_id/adibass20/adinote.htm
comments
We did not receive enough feedback on this tab! Please rate:
print report bad tab
1 2 3 4 5
2 comments total.
0 reply
Part_Of_Me wrote on September 27 2002, 12:00 am

The original main riff is
G---------------------------
D---------------------------
A-----5-----5-----------5(bend slightly)
D--0-----0-----0--6--4------

Verse B Section
G---------------------------
D---------------------------
A-------7-------------5-----
D--0--0----x-6-x-5-6--------

Fast fill before Chrorus
G---------------------------
D---------------------------
A------------------4--------
D--0-0-5-6-5-0-3-5----------

The slap part is on the open low D and the 3rd fret. Mixing with some percussive slap between notes.

0 reply
Part_Of_Me wrote on October 10 2002, 12:00 am

btw, to read this correctly, cut and paste it to notepad.

I want to post or [tab]
guest
You may want to rate the tab now too:
select rating
Please do not post tabs as comments. Select "correction" instead!