Oops, an error
Loading. Please wait.

Feelin Alright With The Crew tab

by 999
1,669 views 1 this week
1 commentread comment
1 2 3 4 5
2 more votes to show rating
add to favorites
×
Save as Personal and add changes to this tab that will be seen only by you. Learn more ›
×
You can save this tab as Personal to edit and correct it or add notes. All changes will be seen only by you. Learn more »
launch autoscroll
font size
0
reset
how to read this tab
guitar tuner
edit
Autoscroll
slow
fast
+/-
esc
set tempo
stop
Feelin' Alright With the Crew by 999
(standard tuning)

guitar 1
|----------------|-------1------|
|-------------1--|---------1----|
|-0---------2----|-----------2--|
|-------3--------|----3---------|
|----------------|--------------|
|----1-----------|-3------------|
it pretty much just alternates between 
those 2 parts throughout the song.


guitar 2
|-3-3-3-3-|
|-3-3-3-3-|
|---------|
|---------|
|---------|
|---------|
and guitar 2 does that for almost the whole song.


|-----------------------------|------------------|
|-----------------------------|------------------|
|-------0------------0--------|------------------|
|-----3------------3----------|------------5-6-7-|
|---1-------0----1-------7--7-|----4-5-6-7-------|
|-3------------3---------5--5-|--5---------------|


|-------------1------|
|----------------1---|
|------------------2-|
|--------------------|
|--------3-----------|
|-3b(5)~-------------|
the next part is basically that over and over 
but jazzed up a little different every time.


|----------------|-------1------|
|-------------1--|---------1----|
|-0---------2----|-----------2--|
|-------3--------|----3---------|
|----------------|--------------|
|----1-----------|-3------------|
and then that goes to the end.


            
            
Suggest correction
Creating personal tab
Creating personal tab
You can edit any tab online and save it as your Personal.

You can edit, replace or remove any tab part or add personal notes – all changes will be seen only by you.

Personal tabs can be accessed anytime from any device, even offline.
Learn more »
Give kudos to tab author, rate the tab!
1 2 3 4 5
comments
print report bad tab
1 comment total.
0 reply
serbus 143 Jun 15, 2014 09:14 AM

|----------------|-------1------|
|-------------1--|---------1----|
|-----------2----|-----------2--|
|-------3--------|--------------|
|-10-------------|--------------|
|----6-----------|-3------------|

guest
You may want to rate the tab now too:
select rating
Wanna post a correction for this tab? Suggest correction