Oops, an error
Loading. Please wait.

Quello Che Bass Tab

version 1
version 1

Whole song

Interactive

19 views 6 this week
no commentswrite comment
1 2 3 4 5
2 more votes to show rating
add to favorites
launch autoscroll
font size
0
reset
guitar tuner
Autoscroll
slow
fast
+/-
esc
set tempo
stop
Help us to improve Ultimate-Guitar.com Take our survey!
×
Author
Difficulty
novice
["Inutile cercare un perchè.."]

G|-----|    |-------|-------|-------|---------|
D|-----|    |-------|-------|-------|-6-5-----|
A|-3---|    |-3-5---|-5-6---|-6-8---|-----3---| x6 
E|-----|    |-------|-------|-------|---------|


["nononono.."]

G|------------|----------|
D|------------|----------|
A|-3--3-3-6-5-|----------| x4 
E|------------|4--4-4-7--|

G|--------------|--------------|
D|-5-5-5-6-5----|-5-5-5-6-5----|
A|--------------|-----------3--| x4  
E|-----------4--|--------------|


G|-----|    |-------|-------|-------|---------|
D|-----|    |-------|-------|-------|-6-5-----|
A|-3---|    |-3-5---|-5-6---|-6-8---|-----3---| x4
E|-----|    |-------|-------|-------|---------|

G|------------|----------|
D|------------|----------|
A|-3--3-3-6-5-|----------| x4 
E|------------|4--4-4-7--|

G|--------------|--------------|
D|-5-5-5-6-5----|-5-5-5-6-5----|
A|--------------|-----------3--| x4  
E|-----------4--|--------------|


["Dal silenzio delle cose.."]


G|-----|    |-------|-------|-------|---------|
D|-----|    |-------|-------|-------|-6-5-----|
A|-3---|    |-3-5---|-5-6---|-6-8---|-----3---| x6 
E|-----|    |-------|-------|-------|---------|


["nonononono...."]
G|------------|----------|
D|------------|----------|
A|-3--3-3-6-5-|----------| x4 
E|------------|4--4-4-7--|

G|--------------|--------------|
D|-5-5-5-6-5----|-5-5-5-6-5----|
A|--------------|-----------3--| x4  
E|-----------4--|--------------|


G|-----|    |-------|-------|-------|---------|
D|-----|    |-------|-------|-------|-6-5-----|
A|-3---|    |-3-5---|-5-6---|-6-8---|-----3---| x4
E|-----|    |-------|-------|-------|---------|


G|--------------|--------------|
D|-5-5-5-6-5----|-5-5-5-6-5----|
A|--------------|-----------3--| x8  
E|-----------4--|--------------|

Suggest correction
Give kudos to tab author, rate the tab!
1 2 3 4 5
comments
print report bad tab
guest
You may want to rate the tab now too:
select rating
Wanna post a correction for this tab? Suggest correction