Oops, an error
Loading. Please wait.

Hold On Loosely Tab

version 3
version 3

Intro

Solo

Whole song

Interactive

8,950 views 9 this week
no commentswrite comment
1 2 3 4 5
accurate
x 1
add to favorites
launch autoscroll
font size
0
reset
how to read this tab
guitar tuner
Tab Pro tools
  • play this tab
  • loop segment
  • change instrument
  • show fretboard
  • metronome
×
Best way to learn
"Hold On Loosely"
Autoscroll
slow
fast
+/-
esc
set tempo
stop
Contributor
Difficulty
novice
Verse
e|----------------------------------------|  
B|------(P.M)----(P.M)----(P.M)----(P.M)--|  
G|-----999999-9-999999-9-777777-7-777777--| 
D|-9-7-999999-9-999999-9-777777-7-777777--| 
A|-9-7-777777-7-666666-6-555555-5-444444--| 
E|-7-5------------------------------------| 
        
Pre-Chrous
e|----------------|
B|----------------|
G|-555----755-----|
D|-555----755-----|
A|-333----555-----|
E|----------------|
after you strum the power chords above, play them palm muted until the next one

Chorus
e|-------------------------------------------------------------------------|
B|-------------------------------------------------------------------------|
G|-99999999-99999999-77777777-777777--77-----------------------------------|
D|-99999999-99999999-77777777-777777--77-----------------------------------|
A|-77777777-66666666-55555555-444444--55-----------------------------------|
E|-------------------------------------------------------------------------|

Some Other Riff
e|-------------------------------------------------------------------------|
B|-------------------------------------------------------------------------|
G|-9-9-9-9-9-9-9-9-9---7-7-7-7-7-7-7-7-7-----------------------------------|
D|-7-6-7-6-7-7-6-7-6---5-4-5-4-5-5-4-5-4-----------------------------------|
A|-0-0-0-0-0-0-0-0-0---0-0-0-0-0-0-0-0-0-----------------------------------|
E|-------------------------------------------------------------------------|

comments
We did not receive enough feedback on this tab! Please rate:
print report bad tab
1 2 3 4 5
I want to post or [tab]
guest
You may want to rate the tab now too:
select rating
Please do not post tabs as comments. Select "correction" instead!