Oops, an error
Loading. Please wait.

96 Tears Bass Tab

version 1
version 1

Whole song

Interactive

4,606 views 6 this week
no commentswrite comment
1 2 3 4 5
please rate
add to favorites
launch autoscroll
font size
0
reset
guitar tuner
Tab Pro tools
  • play this tab
  • loop segment
  • change instrument
  • show fretboard
  • metronome
×
Best way to learn
"96 Tears"
Autoscroll
slow
fast
+/-
esc
set tempo
stop
Contributor
96 Tears
Question Mark and the Mysterians
Written by Rudy Martinez; released as a single with "Midnight Hour" as the 
B-side, and on the album "96 Tears"

Intro:
G|------- ------- ------- -------|------- ------- ------- -------|
D|-------------------------------|------------------------3---5--|
A|-------------------------------|--------------------5----------|
E|-------------------------------|-------------------------------|
 


G|------- ------- ------- -------|------- ------- ------- -------|
D|5---5---2---0---5---5---2---0--|--------2---5-----------2---4--|
A|-------------------------------|3---3-----------3---3----------|
E|-------------------------------|-------------------------------|
 


G|------- ------- ------- -------|------- ------- ------- -------|
D|5---5---2---0---5---5---2---0--|--------2---5-----------2---4--|
A|-------------------------------|3---3-----------3---3----------|
E|-------------------------------|-------------------------------|
                                                      Too many

Verse:
G|------- ------- ------- -------|------- ------- ------- -------|
D|5---5---2---0---5---5---2---0--|--------2---5-----------2---4--|
A|-------------------------------|3---3-----------3---3----------|
E|-------------------------------|-------------------------------|
  teardrops                   for one heart           to  be  cry-


G|------- ------- ------- -------|------- ------- ------- -------|
D|5---5---2---0---5---5---2---0--|--------2---5-----------2---4--|
A|-------------------------------|3---3-----------3---3----------|
E|-------------------------------|-------------------------------|
  ing,                                                Too many


G|------- ------- ------- -------|------- ------- ------- -------|
D|5---5---2---0---5---5---2---0--|--------2---5-----------2---4--|
A|-------------------------------|3---3-----------3---3----------|
E|-------------------------------|-------------------------------|
  teardrops                   for one heart               to  carry


G|------- ------- ------- -------|------- ------- ------- -------|
D|5---5---2---0---5---5---2---0--|--------2---5-----------2---4--|
A|-------------------------------|3---3-----------3---3----------|
E|-------------------------------|-------------------------------|
  on.                                      You're way on      top


G|------- ------- ------- -------|------- ------- ------- -------|
D|5---5---2---0---5---5---2---0--|--------2---5-----------2---4--|
A|-------------------------------|3---3-----------3---3----------|
E|-------------------------------|-------------------------------|
  now,                                              since you left


G|------- ------- ------- -------|------- ------- ------- -------|
D|5---5---2---0---5---5---2---0--|--------2---5-----------2---4--|
A|-------------------------------|3---3-----------3---3----------|
E|-------------------------------|-------------------------------|
  me.                                              You're al- ways

Verse:
G|------- ------- ------- -------|------- ------- ------- -------|
D|5---5---2---0---5---5---2---0--|--------2---5-----------2---4--|
A|-------------------------------|3---3-----------3---3----------|
E|-------------------------------|-------------------------------|
  laughin'                                    way down at     me,


G|------- ------- ------- -------|------- ------- ------- -------|
D|5---5---2---0---5---5---2---0--|--------2---5-----------2---4--|
A|-------------------------------|3---3-----------3---3----------|
E|-------------------------------|-------------------------------|
                                              But watch out   now,


G|------- ------- ------- -------|------- ------- ------- -------|
D|5---5---2---0---5---5---2---0--|--------2---5-----------2---4--|
A|-------------------------------|3---3-----------3---3----------|
E|-------------------------------|-------------------------------|
                                              I'm gonna   get there,


G|------- ------- ------- -------|------- ------- ------- -------|
D|5---5---2---0---5---5---2---0--|--------2---5-----------2---4--|
A|-------------------------------|3---3-----------3---3----------|
E|-------------------------------|-------------------------------|
                                            We'll be  to  -   ge-


G|------- ------- ------- -------|------- ------- ------- -------|
D|5---5---2---0---5---5---2---0--|--------2---5-----------2---4--|
A|-------------------------------|3---3-----------3---3----------|
E|-------------------------------|-------------------------------|
  ther                                        for just a  little


G|------- ------- ------- -------|------- ------- ------- -------|
D|5---5---2---0---5---5---2---0--|--------2---5-----------2---4--|
A|-------------------------------|3---3-----------3---3----------|
E|-------------------------------|-------------------------------|
  while.                                      And then gonna put you
                                                    I'm
Verse:
G|------- ------- ------- -------|------- ------- ------- -------|
D|5---5---2---0---5---5---2---0--|--------2---5-----------2---4--|
A|-------------------------------|3---3-----------3---3----------|
E|-------------------------------|-------------------------------|
                                                  way down    here,


G|------- ------- ------- -------|------- ------- ------- -------|
D|5---5---2---0---5---5---2---0--|--------2---5-----------2---4--|
A|-------------------------------|3---3-----------3---3----------|
E|-------------------------------|-------------------------------|
                                              and you'll      cry-
                                                      start

G|------- ------- ------- -------|------- ------- ------- -------|
D|5---5---2---0---5---5---2---0--|--------2---5-----------2---4--|
A|-------------------------------|3---3-----------3---3----------|
E|-------------------------------|-------------------------------|
  ing                                             ninety- six tears,


G|------- ------- ------- -------|------- ------- ------- -------|
D|5---5---2---0---5---5---2---0--|--------2---5-----------2---4--|
A|-------------------------------|3---3-----------3---3----------|
E|-------------------------------|-------------------------------|
                                                              Cry,


G|------- ------- ------- -------|------- ------- ------- -------|
D|5---5---2---0---5---5---2---0--|--------2---5-----------2---4--|
A|-------------------------------|3---3-----------3---3----------|
E|-------------------------------|-------------------------------|
                                                              cry!


G|------- ------- ------- -------|------- ------- ------- -------|
D|5---5---2---0---5---5---2---0--|--------2---5-----------2---4--|
A|-------------------------------|3---3-----------3---3----------|
E|-------------------------------|-------------------------------|


Bridge:
G|------- ----4-- 2---0-- -------|------- ----4-- 2---0-- -------|
D|2-----------------------4------|2-----------------------4------|
A|----------------------------2--|----------------------------2--|
E|-------------------------------|-------------------------------|
              And when the Sun comes up, I'll be on top,


G|------- ----4-- 2---0-- -------|------- ----4-- 2---0-- -------|
D|2-----------------------4------|2-----------------------4------|
A|----------------------------2--|----------------------------2--|
E|-------------------------------|-------------------------------|
              you'll be right down there,     looking up,


G|------- ----4-- 2---0-- -------|------- ----4-- 2---0-- -------|
D|2-----------------------4------|2-----------------------4------|
A|----------------------------2--|----------------------------2--|
E|-------------------------------|-------------------------------|
              And I might wave:              "come up here",


G|------- ----4-- 2---0-- -------|------- ----4-- 2---0-- -------|
D|2-----------------------4------|2-----------------------4------|
A|----------------------------2--|----------------------------2--|
E|-------------------------------|-------------------------------|
              but I don't see you             waving now.


G|------- ----4-- 2---0-- -------|------- ----4-- 2---0-- -------|
D|2-----------------------4------|2-----------------------4------|
A|----------------------------2--|----------------------------2--|
E|-------------------------------|-------------------------------|
              I'm way down here,                  wondering how


G|------- ----4-- 2---0-- -------|------- ----4-- 2---0-- -------|
D|2-----------------------4------|2-----------------------4------|
A|----------------------------2--|----------------------------2--|
E|-------------------------------|-------------------------------|
              I'm gonna get you                   but I know now.


G|------- ----4-- 2---0-- -------|------- ------- ------- -------|
D|2-----------------------4------|----------------------------4--|
A|----------------------------2--|3-----------------------5------|
E|-------------------------------|------------3------------------|
                                                     I'll just try,


G|------- ------- ------- -------|------- ------- ------- -------|
D|5-----------------------5------|----------------------------4--|
A|------------5-------5-------5--|3-----------------------5------|
E|-------------------------------|------------3-------3----------|
                              cry,                   I'll just try.


G|------- ------- ------- -------|------- ------- ------- -------|
D|5-------5-------------------4--|5-------5---------------5------|
A|------------5-------5---5------|------------5-------5-------5--|
E|-------------------------------|-------------------------------|
                                                      Too many


G|------- ------- ------- -------|------- ------- ------- -------|
D|----------------------------4--|5-------5---2---5---5---2---0--|
A|3-------3---------------5------|-------------------------------|
E|----------------3---3----------|-------------------------------|
  teardrops                   for one heart           to  be  cry-


G|------- ------- ------- -------|
D|--------2---5-----------2---4--|
A|3---3-----------3---3----------|
E|-------------------------------|
  ing.                Too many

Verse:
G|------- ------- ------- -------|------- ------- ------- -------|
D|5---5---2---0---5---5---2---0--|--------2---5-----------2---4--|
A|-------------------------------|3---3-----------3---3----------|
E|-------------------------------|-------------------------------|
  teardrops                   for one heart               to  carry


G|------- ------- ------- -------|------- ------- ------- -------|
D|5---5---2---0---5---5---2---0--|--------2---5-----------2---4--|
A|-------------------------------|3---3-----------3---3----------|
E|-------------------------------|-------------------------------|
  on.                                              You're gonna


G|------- ------- ------- -------|------- ------- ------- -------|
D|5---5---2---0---5---5---2---0--|--------2---5-----------2---4--|
A|-------------------------------|3---3-----------3---3----------|
E|-------------------------------|-------------------------------|
  cry             ninety- six tears,               you're gonna


G|------- ------- ------- -------|------- ------- ------- -------|
D|5---5---2---0---5---5---2---0--|--------2---5-----------2---4--|
A|-------------------------------|3---3-----------3---3----------|
E|-------------------------------|-------------------------------|
  cry             ninety- six tears,               You're gonna


G|------- ------- ------- -------|------- ------- ------- -------|
D|5---5---2---0---5---5---2---0--|--------2---5-----------2---4--|
A|-------------------------------|3---3-----------3---3----------|
E|-------------------------------|-------------------------------|
  cry,            cry, cry,   cry,    now,         you're gonna


G|------- ------- ------- -------|------- ------- ------- -------|
D|5---5---2---0---5---5---2---0--|--------2---5-----------2---4--|
A|-------------------------------|3---3-----------3---3----------|
E|-------------------------------|-------------------------------|
  cry,            cry, cry,   cry.                Ninety- six tears,

Outro:
G|------- ------- ------- -------|------- ------- ------- -------|
D|5---5---2---0---5---5---2---0--|--------2---5-----------2---4--|
A|-------------------------------|3---3-----------3---3----------|
E|-------------------------------|-------------------------------|
          come on, let me hear you cry now!       Ninety- six tears,


G|------- ------- ------- -------|------- ------- ------- -------|
D|5---5---2---0---5---5---2---0--|--------2---5-----------2---4--|
A|-------------------------------|3---3-----------3---3----------|
E|-------------------------------|-------------------------------|
          ooh!        I wanna hear you cry!       Night and   day,


G|------- ------- ------- -------|------- ------- ------- -------|
D|5---5---2---0---5---5---2---0--|--------2---5-----------2---4--|
A|-------------------------------|3---3-----------3---3----------|
E|-------------------------------|-------------------------------|
          yeah!       All night long!             Ninety- six tears,


G|------- ------- ------- -------|------- ------- ------- -------|
D|5---5---2---0---5---5---2---0--|--------2---5-----------2---4--|
A|-------------------------------|3---3-----------3---3----------|
E|-------------------------------|-------------------------------|
                  cry, cry,   cry,    come on, baby, let me hear you


G|------- ------- ------- -------|------- ------- ------- -------|
D|5---5---2---0---5---5---2---0--|--------2---5-----------2---4--|
A|-------------------------------|3---3-----------3---3----------|
E|-------------------------------|-------------------------------|
  cry now!        All night   long!               Ninety- six tears,


G|------- ------- ------- -------|------- ------- ------- -------|
D|5---5---2---0---5---5---2---0--|--------2---5-----------2---4--|
A|-------------------------------|3---3-----------3---3----------|
E|-------------------------------|-------------------------------|
          yeah!       Come on now!                Ninety- six tears!


G|------- ------- ------- -------|------- ------- ------- -------|
D|5---5---2---0---5---5---2---0--|--------2---5-----------2---4--|
A|-------------------------------|3---3-----------3---3----------|
E|-------------------------------|-------------------------------|
repeat and fade out...

Please e-mail me for any corrections, or write a comment.
comments
We did not receive enough feedback on this tab! Please rate:
print report bad tab
1 2 3 4 5
I want to post or [tab]
guest
You may want to rate the tab now too:
select rating
Please do not post tabs as comments. Select "correction" instead!