Oops, an error
Loading. Please wait.

I Drive Myself Crazy Tab

53,274 views 33 this week
2 commentsread comments
1 2 3 4 5
accurate
x 11
add to favorites
launch autoscroll
font size
0
reset
how to read this tab
guitar tuner
Tab Pro tools
  • play this tab
  • loop segment
  • change instrument
  • show fretboard
  • metronome
Autoscroll
slow
fast
+/-
esc
set tempo
stop
Contributor
Artist: Nsync
Title: I Drive Myself Crazy
Words And Music By: Rick Nowels, Ellen Shipley and Lan Rich
Transcribed by: someonefreak
Email: - 

Note: I have the score of this song. ^ ^

Intro:(A) (E/G#) (D/F#) (E) (D) (E/D)(D)(E/D)

e|-----0---------0---------------------------6-5------6-5--------------
B|---2---------0-----------3-------0-------3--------3------------------
G|-2-----2---1-----1-----2---2---2---2---2--------2--------------------
D|---------------------4-------2---------------------------------------
A|---------------------------------------------------------------------
E|---------------------------------------------------------------------

Verse 1/2:
       (Bm)     (F#m7)      (E)         (A)
e|---------------------------------------------------------------------
B|-------3----------2----------------------2---------------------------
G|-----4----------2------------1---------2-----------------------------
D|---4----------2------------2---------2-------------------------------
A|-2-----------------------2---------0---------------------------------
E|------------2----------0---------------------------------------------
Lying in your arms, so close together...
I was such a fool, I couldn't see it...                                        

      (Bm)     (F#m7)           (E)
e|---------------------------------------------------------------------
B|-------3----------2---------------2-0h2p0----------------------------
G|-----4----------2------------1-------------2-1-----------------------
D|---4----------2------------2-----------------------------------------
A|-2-----------------------2-------------------------------------------
E|-----------2-----------0---------------------------------------------
Didn't know just what I had...
Just how good you were to me...

        (Bm)     (F#m7)      (E)         (A)
e|---------------------------------------------------------------------
B|-------3----------2----------------------2---------------------------
G|-----4----------2------------1---------2-----------------------------
D|---4----------2------------2---------2-------------------------------
A|-2-----------------------2---------0---------------------------------
E|----------2------------0---------------------------------------------
Now I toss and turn, cause I'm without you...                               
You confessed your love, undying devotion...

         (Bm)     (F#m7)      (E7sus)
e|---------------------------------------------------------------------
B|--------3---------2----------------0---------------------------------
G|------4---------2------------1---2---1-------------------------------
D|----4---------2------------2-----------------------------------------
A|--2----------------------2-------------------------------------------
E|----------2------------0---------------------------------------------
How I'm missing you so bad...
I confess my need to be free...

Pre-Chorus:

          (D)              (E)         
e|--------2------------------------------------------------------------
B|------3---3---------------0------------------------------------------
G|----2-------2-------------1------------------------------------------
D|--0-----------0--------2-----2---------------------------------------
A|---------------------2---------2-------------------------------------
E|-------------------0-------------0-----------------------------------
Where was my head, where was my heart...
And now I'm left, with all these pain...                                        


        (D/F#)            (E/G#)         
e|---------------------------------------------------------------------
B|--------3------------------0-----------------------------------------
G|------2---2----------------1-----------------------------------------
D|----0-------0------------2---2---------------------------------------
A|-----------------------2-------2-------------------------------------
E|--2-----------2------0-----------0-----------------------------------
Now I cry alone in the dark...
I've only got myself to blame...
                                        
Chorus:


  (A)   (E/A)   (D/A)        (E/A) 
e|-0------0-------2------------0--------------------------------
B|-2------0-------3------------0--------------------------------
G|-2------1-------2------------1--------------------------------
D|-2------2-------0------------2--------------------------------
A|-0------2-------0------------0--------------------------------
E|-x------0-------x------------0--------------------------------
  I lie awake, I drive myself crazy                                            

  (D/F#)   (E/G#)   (D)        (E/A) 
e|-x----------0------2------------0------------------------------
B|-3----------0------3------------0------------------------------
G|-2----------1------2------------1------------------------------
D|-0----------2------0------------2------------------------------
A|-0----------2------x------------2------------------------------
E|-2----------4------x------------0------------------------------
 Drive myself crazy, thinking of you                                            


  (A)   (E/A)        (D/A)        (E/A) 
e|-0------0-------------2------------0---------------------------
B|-2------0-------------3------------0---------------------------
G|-2------1-------------2------------1---------------------------
D|-2------2-------------0------------2---------------------------
A|-0------2-------------0------------2---------------------------
E|-x------0-------------x------------0---------------------------
  Made a mistake when I let you go baby                                        


  (D)         (A/C#)        
e|-2-------------2-----------------------------------------------
B|-3-------------2-----------------------------------------------
G|-2-------------2-----------------------------------------------
D|-0-------------0-----------------------------------------------
A|-x-------------0-----------------------------------------------
E|-x-------------x-----------------------------------------------
   I drive myself crazy                                                        


  (Bm7)         (A/C#)        
e|-2-------------0-----------------------------------------------
B|-3-------------2-----------------------------------------------
G|-2-------------2-----------------------------------------------
D|-4-------------2-----------------------------------------------
A|-2-------------4-----------------------------------------------
E|---------------x-----------------------------------------------
 Wanting you the way that I do                                                


  (D)         (A/C#)        
e|-2-------------0-----------------------------------------------
B|-3-------------2-----------------------------------------------
G|-2-------------2-----------------------------------------------
D|-0-------------2-----------------------------------------------
A|-x-------------4-----------------------------------------------
E|-x-------------x-----------------------------------------------
  Wanting you the way that I do                                                

After First Chorus ("wanting you the way that I do" back part):
  (Bm7)   (Dsus2)   (E)     
e|-2--------2--------0-------------------------------------------
B|-3--------3--------0-------------------------------------------
G|-2--------2--------1-------------------------------------------
D|-4--------2--------2-------------------------------------------
A|-2-----------------2-------------------------------------------
E|-------------------0-------------------------------------------

After Second Chorus ("wanting you the way that I do" back part"):

  (Bm7)   (E7)       (Fmaj9)    
e|-2--------0----------x----------------------------------------
B|-3--------0----------1----------------------------------------
G|-2--------1----------0----------------------------------------
D|-4--------0----------2----------------------------------------
A|-2--------2----------0----------------------------------------
E|----------0----------1----------------------------------------
                        ....Why......
Bridge:

            (Em7)         (Am)       (G) 
e|------------0-------------0--------3--------------------
B|------------0-------------1--------0--------------------
G|------------0-------------2--------0--------------------
D|------------0-------------2--------0--------------------
A|------------1-------------0--------2--------------------
E|------------0-------------x--------3--------------------
 Didn't I notice...
              (how much I loved you baby)                               

  (Fmaj9)    (Em7)          (Am)       (G)   (C/D)
e|-x-----------0-------------0----------3------0-------------
B|-1-----------0-------------1----------0------1-------------
G|-0-----------0-------------2----------0------0-------------
D|-2-----------0-------------2----------0------0-------------
A|-0-----------1-------------0----------2--------------------
E|-1-----------0-------------x----------3--------------------
  Why couldn't I show it......................When I had the chance...
                      (If I only____ I'd told___you)
                                 

  (Dm) (D/E)               (E7)  (A/E)  (E)   (E/G#)
e|-1-----2------------------0------0-----0------0------------
B|-3-----3------------------0------2-----0------0------------
G|-2-----2------------------1------2-----1------1------------
D|-0-----0------------------0------2-----2------2------------
A|-------0------------------2------0-----2------2------------
E|-------x------------------0------0-----0------4------------
  Oh I had the chance... Oh... ("Oh" all the way)

(N.C.)
Lalalala....

Chords Used (in sequence):
(Bm) (G/B) (A) (G) (A)                     (D) (E) (F#m) 
Lalalalala.........I drive myself crazy... Ahh..........

Oh so crazy....

(E) (Bmaj7 x24342) (F#)
Lalala.....Oh..Oh...Oh....

Chorus Again (One Step Higher):
(B) (F#/B x24322) (E/G#) (F#/A# 143121) (E) (F# 244322)

Sing again and again and again and again and again... 


-someonefreak
comments
print report bad tab
2 comments total.
0 reply
tenchixjk wrote on December 13 2005, 11:01 pm

intros right the rest is wrong

+1 reply
AATTKC wrote on October 1 2006, 01:25 am

e|-----0---------0---------------------------5-4------5-4--------------
B|---2---------0-----------3-------0-------3--------3------------------
G|-2-----2---1-----1-----2---2---2---2---2--------2--------------------
D|---------------------4-------2---------------------------------------
A|---------------------------------------------------------------------
E|---------------------------------------------------------------------


somehow this works better for me

I want to post or [tab]
guest
You may want to rate the tab now too:
select rating
Please do not post tabs as comments. Select "correction" instead!