Oops, an error
Loading. Please wait.

This I Promise You solo tab

version 1
version 1

Solo

Whole song

Interactive

by *NSync
28,743 views 18 this week
5 commentsread comments
1 2 3 4 5
x 8
add to favorites
×
Save as Personal and add changes to this tab that will be seen only by you. Learn more ›
×
You can save this tab as Personal to edit and correct it or add notes. All changes will be seen only by you. Learn more »
launch autoscroll
font size
0
reset
how to read this tab
guitar tuner
edit
Autoscroll
slow
fast
+/-
esc
set tempo
stop
N'sync - this i promise you (guitar solo).
Tabbed by Michael Villanueva  beware_of_jehu@hotmail.com.
  
nsync - this i promise you (guitar solo)

Uhh...Sup Y'aLLz....Uhh...Juss bear wid me on dis tabbing..its my first one so....yeah....tryo it out...its sounds perfect

E-----------------------------------------5/7-5/7-------------------------------------
B---7-8/10-10-10----7-8/10/8-7^8^5----5-7---------7-8/10/8-7^8^5-----5-7-7-7^8-7-5^7^5
G----------------------------------7-------------------------------7------------------
D-------------------------------------------------------------------------------------
A-------------------------------------------------------------------------------------
E-------------------------------------------------------------------------------------




Well There It Is...my first tabbed song (solo)...Its may not be da best....but oh well.....




tabbed my..michael villanueva 
:: Ultimate Guitar Archive :: 
http://www.ultimate-guitar.com 


            
            
Suggest correction
Creating personal tab
Creating personal tab
You can edit any tab online and save it as your Personal.

You can edit, replace or remove any tab part or add personal notes – all changes will be seen only by you.

Personal tabs can be accessed anytime from any device, even offline.
Learn more »
comments
print report bad tab
5 comments total. Showing first comments.
+1 reply
g2k2001 10 Mar 04, 2008 02:26 PM

i dunno, i fixed one or two things. i just think it sounds better to me. good tab though

E-----------------------------------------5/7-7---------------------------------------
B---7-8/10-10-10-10--7-8/10/8-7^8^5----5-7---------7-8/10/8-7^8^5-----5-7-7-7^8-7-5^7^5
G----------------------------------7-------------------------------7------------------
D-------------------------------------------------------------------------------------
A-------------------------------------------------------------------------------------
E-------------------------------------------------------------------------------------

+1 reply
A.Kia 35 Mar 22, 2009 07:02 AM

This is how I play it

E----------------------------------------------- 5/7-7------------------------------------------
B---7h8/10-10-10-10---7h8/10-8-7^5----5-7-7--------7-8/10-8-7^5-----5-7-7-7^8-7-5^7^5---l
G-------------------------------------7------------------------------7-------------------------
D----------------------------------------------------------------------------------------------
A----------------------------------------------------------------------------------------------
E----------------------------------------------------------------------------------------------

0 reply
A.Kia 35 Mar 22, 2009 07:03 AM

sorry for the misalignment

guest
Wanna post a correction for this tab? Suggest correction