Oops, an error
Loading. Please wait.

Land Down Under tab

1,224 views 1 this week
4 commentsread comments
1 2 3 4 5
3 more votes to show rating
add to favorites
×
Save as Personal and add changes to this tab that will be seen only by you. Learn more ›
×
You can save this tab as Personal to edit and correct it or add notes. All changes will be seen only by you. Learn more »
launch autoscroll
font size
0
reset
how to read this tab
guitar tuner
edit
Autoscroll
slow
fast
+/-
esc
set tempo
stop
Author
Difficulty
i liked this version of the song i thought id have a go at tabbing it. its missing the 
but i'm working on it.

intro

G1
B|------------------|--------------|------------------------------------|
G|-11---------------|--11----------|--11-11-11-11-12--1212-11------11---|
D|----12-11h12p11h12|-----12-11-12-|----------------------------12----12|
A|------------------|--------------|------------------------------------|
E|------------------|--------------|------------------------------------|

G2 intro/verse (cant be bothered to tab the strumming pattern but its not to difficult.)
   Bm     A     Bm      G A
e|--2------------2------3-----|
B|--3-----2------3------3-2---|
G|--4-----2------4------0-2---|
D|--4-----2------4------0-2---|
A|--2-----0------2------2-0---|
E|----------------------3-----|


G1+G2 Chorus

e|---------------------------|
B|---------------------------|
G|---7-----------------------|
D|---7----7----9----3--7-----|
A|---5----7----9----3--7-----|
E|--------5----7----5--5-----|


repeat intro

repeat verse

repeat chorus

solo (G2 repeats verse again)


STILL WORKING ON IT...


after the solo the verse starts to fade in again before going into the chorus, which is 
to the end.

this is my first try at tabbing a song. so any corrections welcome. and if anyone has 
of the solo please
let me know.

by 10crumsey
Suggest correction
Creating personal tab
Creating personal tab
You can edit any tab online and save it as your Personal.

You can edit, replace or remove any tab part or add personal notes – all changes will be seen only by you.

Personal tabs can be accessed anytime from any device, even offline.
Learn more »
Give kudos to tab author, rate the tab!
1 2 3 4 5
comments
print report bad tab
4 comments total. Showing first comments.
0 reply
10crumsey 31 Aug 26, 2010 02:38 AM

sory the chorus is meant to be:

e|---------------------------|
B|---------------------------|
G|---7-----------------------|
D|---7----7----9----5--7-----|
A|---5----7----9----5--7-----|
E|--------5----7----3--5-----|

0 reply
LQRsimpson 10 Apr 21, 2012 03:22 PM

1st guitar verse

(with wah pedal)
e|---------------------------|
B|---------------------------|
G|-7-----6-----7-------------|
D|----9-----7----9---12---14-|
A|-------------------10---12-|
E|---------------------------|

0 reply
LQRsimpson 10 Apr 21, 2012 03:31 PM

bit of the solo that i learned by ear. its the bit were the chorus backing kicks in, hope you understand :3

e|----------------------------|
B|-20p19-------22--20--19--20-|
G|------19-x8-----------------|
D|----------------------------|
A|----------------------------|
E|----------------------------|

guest
You may want to rate the tab now too:
select rating
Wanna post a correction for this tab? Suggest correction