Oops, an error
Loading. Please wait.

Skanking Song tab

1,497 views 1 this week
2 commentsread comments
1 2 3 4 5
x 3
add to favorites
×
Save as Personal and add changes to this tab that will be seen only by you. Learn more ›
×
You can save this tab as Personal to edit and correct it or add notes. All changes will be seen only by you. Learn more »
launch autoscroll
font size
0
reset
how to read this tab
guitar tuner
edit
Autoscroll
slow
fast
+/-
esc
set tempo
stop
Author
Difficulty
Intro

(rhythm)
e|--7--6--7--9--—7--6--7--7-----------------|
B|--7--7--9--11--7--7--9--7-----------------|
G|--8--8--9--11--8--8--9--8-----------------|x2
D|--9--8--9--11--9--8--9--9-----------------|
A|--9--6--7--9---9--6--7--9-----------------|
E|--7--6--7--9---7--6--7--7-----------------|

Verse

(rhythm)
e|--7--6--7--9--—7--6--7--7-----------------|
B|--7--7--9--11--7--7--9--7-----------------|
G|--8--8--9--11--8--8--9--8-----------------|x2
D|--9--8--9--11--9--8--9--9-----------------|
A|--9--6--7--9---9--6--7--9-----------------|
E|--7--6--7--9---7--6--7--7-----------------|

Chorus

(rhythm)
e|--7--7--9--—7------7--7--9----------------|
B|--9--7--11--7------9--7--9----------------|
G|--9--8--11--8------9--8--11---------------|
D|--9--9--11--9------9--9--11---------------|
A|--7--9--9---9------7--9--9----------------|
E|--7--7--9---7------7--7--9----------------|

(lead)
e|-----------—------------------------------|
B|------------------------------------------|
G|--9-----11---------9-----11---------------|
D|--9--9--11--9------9--9--11---------------|
A|--7--9--9---9------7--9--9--9-9-9-7-6-----|
E|-----7------7---------7---------------9---|

Verse

(rhythm)
e|--7--6--7--9--—7--6--7--7-----------------|
B|--7--7--9--11--7--7--9--7-----------------|
G|--8--8--9--11--8--8--9--8-----------------|x2
D|--9--8--9--11--9--8--9--9-----------------|
A|--9--6--7--9---9--6--7--9-----------------|
E|--7--6--7--9---7--6--7--7-----------------|

Chorus

(rhythm)
e|--7--7--9--—7------7--7--9----------------|
B|--9--7--11--7------9--7--9----------------|
G|--9--8--11--8------9--8--11---------------|
D|--9--9--11--9------9--9--11---------------|
A|--7--9--9---9------7--9--9----------------|
E|--7--7--9---7------7--7--9----------------|

(lead)
e|-----------—------------------------------|
B|------------------------------------------|
G|--9-----11---------9-----11---------------|
D|--9--9--11--9------9--9--11---------------|
A|--7--9--9---9------7--9--9--9-9-9-7-6-----|
E|-----7------7---------7---------------9---|


Bridge

(Lead)
e|------------------------------------------|
B|------------------------------------------|
G|------------------------------------------|
D|---------------6--------------9-----------|
A|------6-9--7-7---9--9-9-7-6---9-----------|
E|--7-7-----------------------9-7-----------|

[rhythm Guitar starts after above]

e|------------------------------------------|
B|------------------------------------------|
G|------------------------------------------|x3
D|---------------6--------------------------|
A|------6-9--7-7---9--9-9-7-6---------------|
E|--7-7-----------------------9-------------|

(Rhythm) 

e|--7--6--7--9--—7--6--7--7-----------------|
B|--7--7--9--11--7--7--9--7-----------------|
G|--8--8--9--11--8--8--9--8-----------------|x3
D|--9--8--9--11--9--8--9--9-----------------|
A|--9--6--7--9---9--6--7--9-----------------|
E|--7--6--7--9---7--6--7--7-----------------|


Chorus

(rhythm)
e|--7--7--9--—7------7--7--9-----------------|
B|--9--7--11--7------9--7--9-----------------|
G|--9--8--11--8------9--8--11----------------|
D|--9--9--11--9------9--9--11----------------|
A|--7--9--9---9------7--9--9-----------------|
E|--7--7--9---7------7--7--9-----------------|

(lead)
e|-----------—-------------------------------|
B|-------------------------------------------|
G|--9-----11---------9-----11----------------|
D|--9--9--11--9------9--9--11----------------|
A|--7--9--9---9------7--9--9--9-9-9-9-9------|
E|-----7------7---------7--------------------|


[Changes to Power chords]

Verse

(rhythm)
e|--------------—---------------------------|
B|------------------------------------------|
G|-----8--9--11-----8--9--------------------|x2
D|--9--8--9--11--9--8--9--9-----------------|
A|--9--6--7--9---9--6--7--9-----------------|
E|--7------------7--------7-----------------|

Chorus

(rhtyhm + lead)

e|-----------—-------------------------------|
B|-------------------------------------------|
G|--9-----11---------------------------------|x2
D|--9--9--11--9------------------------------|
A|--7--9--9---9------------------------------|
E|-----7------7------------------------------|



Outro

(rhythm)
e|--7--7--9--—7------7--7--9---------------------|
B|--9--7--11--7------9--7--9---------------------|
G|--9--8--11--8------9--8--11--------------------|x2
D|--9--9--11--9------9--9--11--------9--9--------|
A|--7--9--9---9------7--9--9---------9--9--------|
E|--7--7--9---7------7--7--9---------7--7--------|



(lead)
e|-----------—----------------------------------|
B|----------------------------------------------|
G|--9-----11---------9-----11-------------------|x2
D|--9--9--11--9------9--9--11--------9--9-------|
A|--7--9--9---9------7--9--9---------9--9-------|
E|-----7------7---------7------------7--7-------|


Suggest correction
Creating personal tab
Creating personal tab
You can edit any tab online and save it as your Personal.

You can edit, replace or remove any tab part or add personal notes – all changes will be seen only by you.

Personal tabs can be accessed anytime from any device, even offline.
Learn more »
Give kudos to tab author, rate the tab!
1 2 3 4 5
comments
print report bad tab
2 comments total.
0 reply
goodsum 575 Jun 04, 2007 11:35 AM

skank it up... nice tab

0 reply
goodsum 575 Feb 12, 2012 05:41 AM

Hahah just came back to this tab - went to vote it 5 stars to find I've already voted and commented on it almost 5 years ago... mental. Perfect tab btw ;)

guest
You may want to rate the tab now too:
select rating
Wanna post a correction for this tab? Suggest correction