Oops, an error
Loading. Please wait.

Canadian Idiot Bass Tab

949 views 1 this week
2 commentsread comments
1 2 3 4 5
excellent!
x 1
add to favorites
launch autoscroll
font size
0
reset
guitar tuner
Tab Pro tools
  • play this tab
  • loop segment
  • change instrument
  • show fretboard
  • metronome
Autoscroll
slow
fast
+/-
esc
set tempo
stop
Contributor
G---------------------------|come in second time
D---------------------------|
A---------4--4-4------4-----|x3
E---4-4-4--------2--2---4-2-|
     pause for 8 beats
G---------------------------| 
D---------------------------|
A---------4--4-4------4-----|
E---4-4-4--------2--2---4-2-|
     pause for 8 beats
G---------------------------| 
D---------------------------|
A---------4--4-4------4-----|
E---4-4-4--------2--2---4-2-|
     pause for 8 beats
G---------------------------| 
D---------------------------|
A---------4--4-4------4-----|
E---4-4-4--------2--2---4-2-|
     
G------------------------------------------------------------------|
D------------------------------------------------------------------|
A--4-4-4-4-4-4-4-4-4-4-4-4-4-4-4-4---------------------------------|
E----------------------------------4-4-4-4-4-4-4-4-4-4-4-4-4-4-4-4-|

G------------------------------------------------------------------|
D--2-2-2-2-2-2-2-2-2-2-2-2-2-2-2-2---------------------------------|
A------------------------------------------------------------------|
E----------------------------------4-4-4-4-4-4-4-4-4-4-4-4-4-4-4-4-|

G------------------------------------------------------------------|
D------------------------------------------------------------------|
A--4-4-4-4-4-4-4-4-4-4-4-4-4-4-4-4---------------------------------|
E----------------------------------4-4-4-4-4-4-4-4-4-4-4-4-4-4-4-4-|

G----------------------------------|
D--2-2-2-2-2-2-2-2-2-2-2-2-2-2-2-2-|
A----------------------------------|
E----------------------------------|
     pause for 8 beats
G---------------------------| 
D---------------------------|
A---------4--4-4------4-----|x2
E---4-4-4--------2--2---4-2-|
     pause for 8 beats
G---------------------------| 
D---------------------------|
A---------4--4-4------4-----|
E---4-4-4--------2--2---4-2-|
     pause for 8 beats
G---------------------------| 
D---------------------------|
A---------4--4-4------4-----|
E---4-4-4--------2--2---4-2-|
     pause for 8 beats
G---------------------------| 
D---------------------------|
A---------4--4-4------4-----|
E---4-4-4--------2--2---4-2-|
     pause for 8 beats
G---------------------------| 
D---------------------------|
A---------4--4-4------4-----|
E---4-4-4--------2--2---4-2-|
     
G------------------------------------------------------------------|
D------------------------------------------------------------------|
A--4-4-4-4-4-4-4-4-4-4-4-4-4-4-4-4---------------------------------|
E----------------------------------4-4-4-4-4-4-4-4-4-4-4-4-4-4-4-4-|

G------------------------------------------------------------------|
D--2-2-2-2-2-2-2-2-2-2-2-2-2-2-2-2---------------------------------|
A------------------------------------------------------------------|
E----------------------------------4-4-4-4-4-4-4-4-4-4-4-4-4-4-4-4-|

G------------------------------------------------------------------|
D------------------------------------------------------------------|
A--4-4-4-4-4-4-4-4-4-4-4-4-4-4-4-4---------------------------------|
E----------------------------------4-4-4-4-4-4-4-4-4-4-4-4-4-4-4-4-|

G----------------------------------|
D--2-2-2-2-2-2-2-2-2-2-2-2-2-2-2-2-|
A----------------------------------|
E----------------------------------|
     pause for 44 beats
G------------------------------------------------------------------|
D------------------------------------------------------------------|
A--4-4-4-4-4-4-4-4-4-4-4-4-4-4-4-4---------------------------------|
E----------------------------------4-4-4-4-4-4-4-4-4-4-4-4-4-4-4-4-|

G------------------------------------------------------------------|
D--2-2-2-2-2-2-2-2-2-2-2-2-2-2-2-2---------------------------------|
A------------------------------------------------------------------|
E----------------------------------4-4-4-4-4-4-4-4-4-4-4-4-4-4-4-4-|

G------------------------------------------------------------------|
D------------------------------------------------------------------|
A--4-4-4-4-4-4-4-4-4-4-4-4-4-4-4-4---------------------------------|
E----------------------------------4-4-4-4-4-4-4-4-4-4-4-4-4-4-4-4-|

G----------------------------------|
D--2-2-2-2-2-2-2-2-2-2-2-2-2-2-2-2-|
A----------------------------------|
E----------------------------------|
     pause for 8 beats
G---------------------------| 
D---------------------------|
A---------4--4-4------4-----|x3
E---4-4-4--------2--2---4-2-|
     pause for 5 beats
G----------|
D----------|
A--4-4-4---|
E--------4-|
comments
We did not receive enough feedback on this tab! Please rate:
print report bad tab
1 2 3 4 5
2 comments total.
0 reply
totalxanarchy wrote on October 5 2007, 06:56 pm

this is prolly the simplest song ever. good job not messin it up like evryone else who tries to tab out american idiot duz.

0 reply
poker_weirdo wrote on May 22 2012, 12:17 pm

all of the 2s on the D string should either be 1s on D or 6s on A

I want to post or [tab]
guest
You may want to rate the tab now too:
select rating
Please do not post tabs as comments. Select "correction" instead!