Oops, an error
Loading. Please wait.

Eat It Bass Tab

1,580 views 1 this week
no commentswrite comment
1 2 3 4 5
excellent!
x 3
add to favorites
launch autoscroll
font size
0
reset
guitar tuner
Tab Pro tools
  • play this tab
  • loop segment
  • change instrument
  • show fretboard
  • metronome
×
Best way to learn
"Eat It"
Autoscroll
slow
fast
+/-
esc
set tempo
stop
Contributor
G----------5-2---4--2-0-0----------5-2---4--2-0-|
D--------2-----------------------2--------------|
A--0---3-------------------0---3----------------|x2
E-----------------------------------------------|

G-----------------------------------------------------------------------|
D-----------------------------------------------------------------------|
A---0-0--0----------0-0--0------------------------------0-0---0---------|x2
E-----------3-3--3----------3-3---3---1-1---1--3-3---3-----------3-3--3-|

G----------5-2---4--2-0-0----------5-2---4--2-0-|
D--------2-----------------------2--------------|
A--0---3-------------------0---3----------------|x3
E-----------------------------------------------|

G-----------------------------------------------------------------------|
D-----------------------------------------------------------------------|
A---0-0--0----------0-0--0------------------------------0-0---0---------|x2
E-----------3-3--3----------3-3---3---1-1---1--3-3---3-----------3-3--3-|

G----------5-2---4--2-0-0----------5-2---4--2-0-|
D--------2-----------------------2--------------|
A--0---3-------------------0---3----------------|x4
E-----------------------------------------------|

G-----------------------------------|
D-----------------------------------|
A--0-0--0--0-0--0----0-0--0--0-0--0-|
E-----------------------------------|

G-----------------------------------------------------------------------|
D-----------------------------------------------------------------------|
A---0-0--0----------0-0--0------------------------------0-0---0---------|x2
E-----------3-3--3----------3-3---3---1-1---1--3-3---3-----------3-3--3-|

G----------5-2---4--2-0-0----------5-2---4--2-0-|
D--------2-----------------------2--------------|  play until fadeout
A--0---3-------------------0---3----------------|
E-----------------------------------------------|
comments
We did not receive enough feedback on this tab! Please rate:
print report bad tab
1 2 3 4 5
I want to post or [tab]
guest
You may want to rate the tab now too:
select rating
Please do not post tabs as comments. Select "correction" instead!