Oops, an error
Loading. Please wait.

Eat It tab

version 2
version 2

Whole song

1,217 views 1 this week
2 commentsread comments
1 2 3 4 5
x 3
add to favorites
×
Save as Personal and add changes to this tab that will be seen only by you. Learn more ›
×
You can save this tab as Personal to edit and correct it or add notes. All changes will be seen only by you. Learn more »
launch autoscroll
font size
0
reset
how to read this tab
guitar tuner
edit
Autoscroll
slow
fast
+/-
esc
set tempo
stop
If any questions contact me at adrian.mtz96@hotmail.com

e-------------------------------------------------------------|   x2
b-------------------------------------------------------------|
g-------------------------------------------------------------|
d-------10-7---9-7----------------------------10-7--9-7-------|
a-----7-------------10-10------------------7-------------10---|
E-5-8-----------------------------------7-8-------------------|


this power chords are played throughout the chorus except when he is saying eat it when 
says eat it you play the intro again
e----------------------------------------------------------------------------|
b----------------------------------------------------------------------------|
g----------------------------------------------------------------------------|
d9--9--9-9-9-9-9-9-9-9---12-12-12-12-12-12-12--5-5-5-5-5-5-5-5--7-7-7-7-7-7--|
a7--7--7-7-7-7-7-7-7-7---10-10-10-10-10-10-10--7-7-7-7-7-7-7-7--9-9-9-9-9-9--|
E----------------------------------------------------------------------------|


BEFORE SOLO
d-7-7-7-7-7-7-7-7-|
a-9-9-9-9-9-9-9-9-|


Solo


E---------------------------------------------------------------------------|
b---------------------------------------------------------------------------|
g -9--12--14,12,14,12,14,12,14--17--15,17,15,17,15,17,15--17,19,17,19,17,19-|
d---------------------------------------------------------------------------|
a---------------------------------------------------------------------------|
E---------------------------------------------------------------------------|


e-------------------------------------------------------------------|
b10,12,1O,12,10--7,9,7,9,7,9--5,7,5,7,5,7--3,5,3,5,3,5--1,3,1,3,1,3-|
g-------------------------------------------------------------------|
d-------------------------------------------------------------------|
a-------------------------------------------------------------------|
E-------------------------------------------------------------------|

e------------------------------------------------------|
b1,3,1,3--3,5,3,5--5,7,5,7--7,9,7,9---5,3---5,3---5,3--|
g------------------------------------------------------|
d------------------------------------------------------|
a------------------------------------------------------|
E------------------------------------------------------|


e-------------------------------15,17--12,15--10,12--7,9--5,7--3,5--1,3--|
b5,3,-7,5-9,7-10,12-12,15-15,17------------------------------------------|
g------------------------------------------------------------------------|
d------------------------------------------------------------------------|
a------------------------------------------------------------------------|
E------------------------------------------------------------------------|

e---------------------------------------------------------------------|
b10,12,10,12,10,12,10,12--12,14,12,14,12,14--15,17,15,17,15,17,15,17--|
g---------------------------------------------------------------------|
d---------------------------------------------------------------------|
a---------------------------------------------------------------------|
E---------------------------------------------------------------------|


after the solo you play the intro all the way till the end
if you dont understand contact me or go to youtube and look for eat it.

            
            
Suggest correction
Creating personal tab
Creating personal tab
You can edit any tab online and save it as your Personal.

You can edit, replace or remove any tab part or add personal notes – all changes will be seen only by you.

Personal tabs can be accessed anytime from any device, even offline.
Learn more »
Give kudos to tab author, rate the tab!
1 2 3 4 5
comments
print report bad tab
2 comments total.
0 reply
baxissimo 617 Apr 25, 2015 11:53 AM

Clearly wrong. The intro solo is definitely wrong.
Didn't look at the main solo but I don't have much confidence in that if even the simple iconic intro solo is wrong.

+1 reply
ootwMusic 26 Jan 23, 2016 07:53 AM

way wrong. the intro is just a typo, however the chorus is way off. didn't check solo. but will soon

guest
Wanna post a correction for this tab? Suggest correction