Oops, an error
Loading. Please wait.

Fun Zone Tab

625 views 9 this week
no commentswrite comment
1 2 3 4 5
accurate
x 1
add to favorites
launch autoscroll
font size
0
reset
how to read this tab
guitar tuner
Tab Pro tools
  • play this tab
  • loop segment
  • change instrument
  • show fretboard
  • metronome
Autoscroll
slow
fast
+/-
esc
set tempo
stop
Contributor
Song: Fun Zone
Artist: "Weird Al" Yankovic
Album: UHF
Tuning: Standard EADGBe
Tabbed By: Yankovicfan3125

UPDATE: The error in the intro was fixed it should be fine now.

The following is a tab of the song, Fun Zone, by "Weird Al" Yankovic, an instrumental 
found on the album, UHF.  It can also be seen in the movie, UHF.  It was going to be used 
the theme for "Welcome to the Fun Zone" but that only had one episode.
I couldn't figure out the chords in the last part of the song, but they are not even 
on guitar.  If you figure them out, PLEASE post your way in the comments/corrections.  
you!
I tabbed out every main part of the song, so I don't have bass.  In a few spots the 
plays riffs connected to the guitar so I included it so it would sound right.
This is a really basic tab, most is plucked, no hammerons and pulloffs.  There are some bends.

---TAB KEY---
/ | slide up
\ | slide down
v | vibrato
b | bend
r | release bend
~ | sustained note

------------------------------------------------------------------------|
16-16-16-14------------------------------------------------16-16--------|
------------17-15----------15-17-18-17-15-17-13-15---15-17-------15-17--|
------------------13-13-13-------------------------13-------------------| x4
------------------------------------------------------------------------|
------------------------------------------------------------------------|

---------------------------------------------------------------|
--16v~\----16--------------------------------16------16v~\-----|
--------17-----15b17r15-------------------17------17-----------|
-------------------------15-13----13~--13-------13-------------|
-------------------------------15------------------------------|
---------------------------------------------------------------|

---------------------------------------------------------------|
-----16--------------------------------------------------------|
--17----15b17r15---------------/20-----------------------------|
------------------15-13----13~---------------------------------|
------------------------13-------------------------------------|
---------------------------------------------------------------|

Then we're going to repeat similarly to what you just played:

------------------------------------------------------------------------|
16-16-16-14------------------------------------------------16-16--------|
------------17-15----------15-17-18-17-15-17-13-15---15-17-------15-17--|
------------------13-13-13-------------------------13-------------------| x2
------------------------------------------------------------------------|
------------------------------------------------------------------------|

---------------------------------------------------------------|
--16v~\----16--------------------------------16------16v~\-----|
--------17-----15b17r15-------------------17------17-----------|
-------------------------15-13----13~--13-------13-------------|
-------------------------------15------------------------------|
---------------------------------------------------------------|

---------------------------------------------------------------|
-----16--------------------------------------------------------|
--17----15b17r15---------------/20-----------------------------|
------------------15-13----13~---------------------------------|
------------------------13-------------------------------------|
---------------------------------------------------------------|

A short guitar lick is played here, not the solo, that's later:

---------------------------------------------------------------|
---------------------------------------------------------------|
----15-17-18-17-15-17-13-15-----15-17-18-17-15-17-13-15--------|
-13--------------------------13--------------------------------|
---------------------------------------------------------------|
---------------------------------------------------------------|

-----------------------------------------------------------------|
-----------------------------------16-14-12-14-------------------|
----15-17-18-17-15-17-13---15-17---------------15----14-12v~-14~-|
-13-----------------------------------------------10---------12~-|
-----------------------------------------------------------------|
-----------------------------------------------------------------|

BASS INTERLUDE then the best part of the song GUITAR SOLO:

--------------------------------------------------------18----------------|
------------------------------16-16----16--18-16--18b20----18b20-18b20r18-|
------15-15----15---15--15/17-------17------------------------------------|
--/13-------13---13-------------------------------------------------------|
--------------------------------------------------------------------------|
--------------------------------------------------------------------------|

---------------------------------------------------------------|
-16----16~\----------------------------------------------------|
----17--------15b16-15-12--------------------------------------|
--------------------------15-13--------------------------------|
---------------------------------------------------------------|
---------------------------------------------------------------|

Here is the part where voices are heard yelling along with chords but sadly I cannot 
those chords as I mentioned above.  After that the main riff is repeated SLOWER:

---------------------------------------------------------------|
16-16-16-14-------------------------------------16-16~-16\-----|
-----------17-15-----------15-17-18-17-15-17-13----------------|
-----------------13-13-13--------------------------------------|
---------------------------------------------------------------|
---------------------------------------------------------------|

And the song is over!

COMMENT AND RATE!
comments
We did not receive enough feedback on this tab! Please rate:
print report bad tab
1 2 3 4 5
I want to post or [tab]
guest
You may want to rate the tab now too:
select rating
Please do not post tabs as comments. Select "correction" instead!