Oops, an error
Loading. Please wait.

I'll Sue Ya Tab

version 1
version 1

Intro

Whole song

Interactive

1,291 views 1 this week
no commentswrite comment
1 2 3 4 5
please rate
add to favorites
launch autoscroll
font size
0
reset
how to read this tab
guitar tuner
Tab Pro tools
  • play this tab
  • loop segment
  • change instrument
  • show fretboard
  • metronome
×
Best way to learn
"I'll Sue Ya"
Autoscroll
slow
fast
+/-
esc
set tempo
stop
Contributor
Difficulty
intermediate
K. now i'm kinda mad i try to send in tabs but they keep on refusing. =( First Tab. 
O ya, weird al ratm style. =)

Tuning:Drop D

E|-------------------------|--------------------------------------------------------}
B|-------------------------|--------------------------------------------------------}
G|-------------------------|--------------------------------------------------------}
D|12-0-0-10-12-0-0-10-10-12|12-0-0-10-12-0-0--5-6-5-3--0----------------------------}
A|12-0-0-10-12-0-0-10-10-12|12-0-0-10-12-0-0--5-6-5-3--0----------------------------}
D|12-0-0-10-12-0-0-10-10-12|12-0-0-10-12-0-0--5-6-5-3--0----------------------------}


E|----------------------------------------------------------------------------------}
B|----------------------------------------------------------------------------------}
G|----------------------------------------------------------------------------------}
D|----------------------------------------------------------------------------------}
A|3-5--8-5-5-5-3-5------------------------------------------------------------------}
D|----------------------------------------------------------------------------------}


E|------------------------------------|---------------------------------------------}
B|------------------------------------|---------------------------------------------}
G|------------------------------------|---------------------------------------------}
D|0-0-0-10-0-0-0-9-0-0-0-8-0-0-5-6-5-3|0-0-0-10-0-0-0-9-0-0-0-8-0-0-5-6-8-10-15-----}
A|0-0-0-10-0-0-0-9-0-0-0-8-0-0-5-6-5-3|0-0-0-10-0-0-0-9-0-0-0-8-0-0-5-6-8-10-15-----}
D|0-0-0-10-0-0-0-9-0-0-0-8-0-0-5-6-5-3|0-0-0-10-0-0-0-9-0-0-0-8-0-0-5-6-8-10-15-----}
comments
We did not receive enough feedback on this tab! Please rate:
print report bad tab
1 2 3 4 5
I want to post or [tab]
guest
You may want to rate the tab now too:
select rating
Please do not post tabs as comments. Select "correction" instead!