Oops, an error
Loading. Please wait.

Smells Like Nirvana Tab

version 2
version 2

Whole song

Interactive

3,185 views 1 this week
3 commentsread comments
1 2 3 4 5
accurate
x 5
add to favorites
launch autoscroll
font size
0
reset
how to read this tab
guitar tuner
Tab Pro tools
  • play this tab
  • loop segment
  • change instrument
  • show fretboard
  • metronome
×
Best way to learn
"Smells Like Nirvana"
Autoscroll
slow
fast
+/-
esc
set tempo
stop
Intro (clean/reverb)/Chorus (dist.)
E|------------------------------------------|
B|------------------------------------------|
G|-------x-x-x-x-3-3----------x-x-x-x-6-6---|
D|-3-3-3-x-x-x-x-3-3----6-6-6-x-x-x-x-6-6---|
A|-3-3-3-x-x-x-x-1-1-0--6-6-6-x-x-x-x-4-4-0-|
E|-1-1-1-x-x-x-x-----0--4-4-4-x-x-x-x-----0-|

Verse (clean, let ring)
E|---1-|
B|-1---|
G|-----|
D|-----|
A|-----|
E|-----|

Pre-Chorus (slight dist.)
E|---1----1----1----1-|
B|-1----1----1----1---|
G|--------------------|
D|--------------------|
A|--------------------|
E|--------------------|

Bridge (dist.)
E|------------------------|
B|------------------------|
G|-----------3^-----------|
D|-3-2-2-4-4----3-2-2-8-6-|
A|-3-2-2-4-4----3-2-2-8-6-|
E|-1-0-0-2-2----1-0-0-6-4-|

Solo (dist.)
E|-----------------------------------------|
B|-----------------------------------------|
G|----8-10---8-8^-8-6-5-6-5----------------|
D|-10------6----------------8-6-8-8^-8-6-5-|
A|-----------------------------------------|
E|-----------------------------------------|

E|-----------------------------------------|
B|-----------------------------------------|
G|----8-10---8-8^-8-6-5-6-5----------------|
D|-10------6----------------8-6-8-8^-8-6-5-|
A|-----------------------------------------|
E|-----------------------------------------|

           this part sound cool if you hammer pull off and slide in places
                           E|---------------------|
                           B|---------------------|
                           G|---------------------|   X4
                           D|-6-5-6-5-6-5-6-5-5/3-|
                           A|---------------------|
                           E|---------------------|
comments
print report bad tab
3 comments total.
0 reply
xxZeroxx wrote on June 11 2006, 10:11 pm

OK good better than the others just a quick fix the bridge is kinnnda wrong but not too bad at all......here it is correct.....
E|--------------------------------|
B|--------------------------------|
G|------------3b---------3-3------|
D|-3-3--4-4-4----3-3-x-x-3-3-6-6--|
A|-3-3--4-4-4----3-3-x-x-1-1-6-6--|
E|-1-1--2-2-2----1-1-x-x-----4-4--|
Then repeat

0 reply
Nexopia wrote on July 26 2007, 02:09 pm

smells like teen spirit it's..Im sure of the first part but the second part i think isn't in the song because im pretty sure it goes back to the main riff but i like playing this before going to main riff...

E|---------------------|---------------|
B|---------------------|---------------|
G|------------3b-------|---------------|
D|-3-x-3-4-4-----------|-3-x-3--8--4---|
A|-3-x-3-4-4-----------|-3-x-3--8--4---|
E|-1-x-1-2-2-----------|-1-x-1--6--2---|

0 reply
Nexopia wrote on July 26 2007, 02:10 pm

but xxZeroxx's is good to im not saying mines better i just like going through songs and finding new ways to play them

I want to post or [tab]
guest
You may want to rate the tab now too:
select rating
Please do not post tabs as comments. Select "correction" instead!