Oops, an error
Loading. Please wait.

Barry White Bass Tab

10 views 1 this week
no commentswrite comment
1 2 3 4 5
3 more votes to show rating
add to favorites
launch autoscroll
font size
0
reset
guitar tuner
Autoscroll
slow
fast
+/-
esc
set tempo
stop
Help us to improve Ultimate-Guitar.com Take our survey!
×
Author
Difficulty
Tuning
intermediate
D# G# C# F# A# D#
[Intro]

G|---------------------------------------------------------------------------|
D|---------------------------------------------------------------------------|
A|------------5-5-4-4-4-4-4-5-5-6-6-6-6-6-6-5-6-5--5--5-4---4----------------|
E|--3-3-3-3-3---------------------------------------------6------------------|

G|---------------------------------------------------------------------------|
D|--------------------------------------------------------------8------------|
A|--10-10-10-10-10-5-5-4-4-4-4-4-5-5-6-6-6-6-6-6-5-6-8-8-8-8-10---10\--------|
E|---------------------------------------------------------------------------|

[Verse 1]

G|---------------------------------------------------------------------------|
D|---------------------------------------------------------------------------|
A|-----------5--3--------3-5---------5--3--------3-5-----------5--3----5--5--|
E|--3---------------------------3-----------------------3--------------------|

G|---------------------------------------------------------------------------|
D|---------------------------------------------------------------------------|
A|--3-3-3-3-3-3-3-3----------------------------------------------------------|
E|------------------3\----------------------------------3\-------------------|

G|---------------------------------------------------------------------------|
D|---------------------------------------------------------------------------|
A|-----------5--3--------3-5---------5--3------------------------------------|
E|--3---------------------------3--------------------------------------------|

G|---------------------------------------------------------------------------|
D|---------------------------------------------------------------------------|
A|-----------5--3--------3-5---------5--3--------3-5-------------------------|
E|--3---------------------------3--------------------------------------------|

G|---------------------------------------------------------------------------|
D|------------------------------3-5-3-5--------------------------------------|
A|-----------5--3--------3-5------------5--3--------10~----------------------|
E|--3------------------------------------------------------------------------|

[Pre Chorus 1]

G|---------------------------------------------------------------------------|
D|---------------------------------------------------------------------------|
A|------------5-5-4-4-4-4-4-5-5-6-6-6-6-6-6-5-6-5--5--5-4---4----------------|
E|--3-3-3-3-3---------------------------------------------6------------------|

G|---------------------------------------------------------------------------|
D|--------------------------------------------------------------8------------|
A|--10-10-10-10-10-5-5-4-4-4-4-4-5-5-6-6-6-6-6-6-5-6-8-8-8-8-10---10\--------|
E|---------------------------------------------------------------------------|

[Chorus 1]

If you want love

G|---------------------------------------------------------------------------|
D|---------------------------------------------------------------------------|
A|-------------------------------3-------------------------------------------|
E|--3------------1--3---------------3----------------1--3--------------------|


[Post Chorus 1]

G|---------------------------------------------------------------------------|
D|---------------------------------------------------------------------------|
A|--10-------------------------------10-10-----------------------------------|
E|--------------------8------------------------------8-----------------------|

G|---------------------------------------------------------------------------|
D|---------------------------------------------------------------------------|
A|--10-------------------------------10-10-----------------------------------|
E|--------------------8------------------------------8-----------------------|

[Verse 2]

G|---------------------------------------------------------------------------|
D|---------------------------------------------------------------------------|
A|---------------------------------------------------------------------------|
E|--3----------------/8----------------3----------------/8-------------------|

G|---------------------------------------------------------------------------|
D|---------------------------------------------------------------------------|
A|---------------------------------------------------------------------------|
E|--3-3-3-3-3-3-3-3-8-8-8-8-8-8-8-8-3-3-3-3-3-3-3-3-8------------------------|

G|---------------------------------------------------------------------------|
D|---------------------------------------------------------------------------|
A|-----------5--3--------3-5---------5--3--------3-5-------------------------|
E|--3---------------------------3--------------------------------------------|

G|---------------------------------------------------------------------------|
D|------------------------------3-5-3-5--------------------------------------|
A|-----------5--3--------3-5------------5--3--------10~----------------------|
E|--3------------------------------------------------------------------------|

[Pre Chorus 2]

G|---------------------------------------------------------------------------|
D|---------------------------------------------------------------------------|
A|------------5-5-4-4-4-4-4-5-5-6-6-6-6-6-6-5-6-5--5--5-4---4----------------|
E|--3-3-3-3-3---------------------------------------------6------------------|

G|---------------------------------------------------------------------------|
D|--------------------------------------------------------------8------------|
A|--10-10-10-10-10-5-5-4-4-4-4-4-5-5-6-6-6-6-6-6-5-6-8-8-8-8-10---10\--------|
E|---------------------------------------------------------------------------|

[Chorus 2]

If you want love

G|---------------------------------------------------------------------------|
D|---------------------------------------------------------------------------|
A|-------------------------------3-------------------------------------------|
E|--3------------1--3---------------3----------------1--3--------------------|

[Post Chorus 2]

G|---------------------------------------------------------------------------|
D|---------------------------------------------------------------------------|
A|--10-------------------------------10-10-----------------------------------|
E|--------------------8------------------------------8-----------------------|

G|---------------------------------------------------------------------------|
D|---------------------------------------------------------------------------|
A|--10-------------------------------10-10-----------------------------------|
E|--------------------8------------------------------8-----------------------|

[Outro]

G|---------------------------------------------------------------------------|
D|---------------------------------------------------------------------------|
A|-----------5--3--------3-5---------5--3------------------------------------|
E|--3---------------------------3--------------------------------------------|

G|---------------------------------------------------------------------------|
D|------------------------------3-5-3-5--------------------------------------|
A|-----------5--3--------3-5------------5--3---------------------------------|
E|--3------------------------------------------------------------------------|



************************************

| /   Slide up
| \   Slide down
| ~   Vibrato

************************************
Suggest correction
Give kudos to tab author, rate the tab!
1 2 3 4 5
comments
print report bad tab
guest
You may want to rate the tab now too:
select rating
Wanna post a correction for this tab? Suggest correction