Oops, an error
Loading. Please wait.

Booty And Burrito Bass Tab

4 views 1 this week
no commentswrite comment
1 2 3 4 5
3 more votes to show rating
add to favorites
launch autoscroll
font size
0
reset
guitar tuner
Autoscroll
slow
fast
+/-
esc
set tempo
stop
Help us to improve Ultimate-Guitar.com Take our survey!
×
Author
Difficulty
Tuning
intermediate
D# G# C# F# A# D#
[Intro]

F#|---------------------------------------------------------------------------|
C#|---------------------------------------------------------------------------|
G#|--4-5-6-7\-----------------7--------------------7--------------7-----4-5-6-|
D#|-----------0----3--5-------------3----5------------------3--5--------------|

[Verse]

chain hang low but it's really on my bike

F#|---------------------------------------------------------------------------|
C#|---------------------------------------------------------------------------|
G#|------------------------------------------------7--------------7-----4-5-6\|
D#|-------------------------12\-----3----5----------------3--5----------------|

F#|---------------------------------------------------------------------------|
C#|---------------------------------------------------------------------------|
G#|--7\-----------------------7--------------------7--------------7-----4-5-6-|
D#|-----------0----3--5-------------3----5----------------3--5----------------|

F#|---------------------------------------------------------------------------|
C#|---------------------------------------------------------------------------|
G#|---------------------------------------------------------------------------|
D#|--0--------0--------0-------5----5---------0--------0--------0-------4-5-6-|

F#|---------------------------------------------------------------------------|
C#|---------------------------------------------------------------------------|
G#|--7\-----------------------7--------------------7--------------7-----------|
D#|-----------0----3--5-------------3----5----------------3--5----------2-3-4-|

[Pre Chorus]

heyyy

F#|---------------------------------------------------------------------------|
C#|--------------------------------------------------------5------------------|
G#|----------------------------------------------------5-7---7-5-3------------|
D#|--5--------3--5-------6-6-6-6-5--------3--5---------------------5-3--------|

F#|---------------------------------------------------------------------------|
C#|---------------------------------------------------------------------------|
G#|---------------------------------------------------------------------------|
D#|--5--------3--5-------6-6-6-6-5--------3--5--------------------------------|

[Chorus]

booty and burrito

F#|---------------------------------------------------------------------------|
C#|--------------------------------------------------5-------7----------------|
G#|--7---------------------------7/10\9---------------------------------------|
D#|-------------3--------5-----------------------3-------5--------------------|

F#|---------------------------------------------------------------------------|
C#|---------------------------------------------------------------------------|
G#|--7---------------------------7--------------------------------------------|
D#|-------------3--------5----------------3-------5---------------------------|

[Instrumental Break]

F#|---------------------------------------------------------------------------|
C#|------------------------5-6------------------------------------------------|
G#|----------------------------7---5-7----------------------------------------|
D#|--0---0--0---0---0--0---------7--------------------------------------------|

[Verse 2]

F#|---------------------------------------------------------------------------|
C#|---------------------------------------------------------------------------|
G#|--------------------7------------------7------------------7----------------|
D#|--12\--3--5----0---------3----5--0----------3--5----0-----------3--5-----0-|

F#|---------------------------------------------------------------------------|
C#|---------------------------------------------------------------------------|
G#|---------------------------------------------------------------------4-5-6-|
D#|--12\--3--5--------------3----5---------------3--5-------------------------|

F#|---------------------------------------------------------------------------|
C#|---------------------------------------------------------------------------|
G#|--7\-----------------------7--------------------7--------------7-----------|
D#|-----------0----3--5-------------3----5------------------3--5--------2-3-4-|

[Pre Chorus 2]

heyyy

F#|---------------------------------------------------------------------------|
C#|--------------------------------------------------------5------------------|
G#|----------------------------------------------------5-7---7-5-3------------|
D#|--5--------3--5-------6-6-6-6-5--------3--5---------------------5-3--------|

F#|---------------------------------------------------------------------------|
C#|---------------------------------------------------------------------------|
G#|---------------------------------------------------------------------------|
D#|--5--------3--5-------6-6-6-6-5--------3--5--------------------------------|


[Chorus 2]

booty and burrito

F#|---------------------------------------------------------------------------|
C#|--------------------------------------------------5-------7----------------|
G#|--7---------------------------7/10\9---------------------------------------|
D#|-------------3--------5-----------------------3-------5--------------------|

F#|---------------------------------------------------------------------------|
C#|---------------------------------------------------------------------------|
G#|--7---------------------------7--------------------------------------------|
D#|-------------3--------5----------------3-------5---------------------------|

[Instrumental Break 2]

F#|---------------------------------------------------------------------------|
C#|------------------------5-6------------------------------------------------|
G#|----------------------------7---5-7----------------------------------------|
D#|--0---0--0---0---0--0---------7--------------------------------------------|

[Bridge]

F#|---------------------------------------------------------------------------|
C#|---------------------------------------------------------------------------|
G#|--7---7---7---7--------7---7-----------7---7---7---7--------7---7----------|
D#|-------------------------------5------------------------------------5------|

F#|---------------------------------------------------------------------------|
C#|---------------------------------------------------------------------------|
G#|--7---7---7------------7---7-----------7---7---7------------7---7----------|
D#|-------------------------------5------------------------------------5------|

F#|---------------------------------------------------------------------------|
C#|---------------------------------------------------------------------------|
G#|--7---7----------------7---7-----------7---7----------------7---7----------|
D#|-------------------------------5------------------------------------5------|

F#|---------------------------------------------------------------------------|
C#|---------------------------------------------------------------------------|
G#|--7\-----------------------------------7\----------------------------------|
D#|-------------------------------5-------------------------------------------|

[Chorus 3]

booty and burrito

F#|---------------------------------------------------------------------------|
C#|---------------------------------------------------------------------------|
G#|---------------------------------------------------------------------------|
D#|--0-0-0-0-0-0-0-0-3-3-3-3-5-5-5-5-0-0-0-0-0-0-0-0-3-3-3-3-5-5-5-5----------|

F#|---------------------------------------------------------------------------|
C#|---------------------------------------------------------------------------|
G#|----------------------------------7-7-7-7-7-7-7-7-10-10-10-10-12-12-12-12--|
D#|--0-0-0-0-0-0-0-0-3-3-3-3-5-5-5-5------------------------------------------|

[Solo Section]

F#|---------------------------------------------------------------------------|
C#|---------------------------------------------------------------------------|
G#|---------------------------------------------------------------------------|
D#|--0-0-0-0-0-0-0-0-3-3-3-3-5-5-5-5-0-0-0-0-0-0-0-0-3-3-3-3-5-5-5-5----------|

punk beat

F#|-------------------------------------------------------------------------------------|
C#|-------------------------------------------------------------------------------------|
G#|--7-7-7-7-7-7-7-7-7-7-10-10-10-10-10-12-12-12-12-12--7-7-7-7-7-7-7-7-7-7-15\\\\\\\\--|
D#|-------------------------------------------------------------------------------------|

[Outro]

F#|---------------------------------------------------------------------------|
C#|---------------------------------------------------------------------------|
G#|--4-5-6-7\-----------------7--------------------7--------------7-----4-5-6-|
D#|-----------0----3--5-------------3----5------------------3--5--------------|

F#|---------------------------------------------------------------------------|
C#|---------------------------------------------------------------------------|
G#|--7\-----------------------------------------------------------------------|
D#|---------------------------------------------------------------------------|

************************************

| /   Slide up
| \   Slide down

************************************
Suggest correction
Give kudos to tab author, rate the tab!
1 2 3 4 5
comments
print report bad tab
guest
You may want to rate the tab now too:
select rating
Wanna post a correction for this tab? Suggest correction