Oops, an error
Loading. Please wait.

Chicago Bass Tab

4 views 1 this week
no commentswrite comment
1 2 3 4 5
3 more votes to show rating
add to favorites
launch autoscroll
font size
0
reset
guitar tuner
Autoscroll
slow
fast
+/-
esc
set tempo
stop
Help us to improve Ultimate-Guitar.com Take our survey!
×
Author
Difficulty
Tuning
intermediate
D# G# C# F# A# D#
[Verse 1]

F#|-----------------7-------------10-------------7----------------------------|
C#|---------------9------------12------------9--------------------------------|
G#|----------7-10--------10-13----------7-10----------10--10--8--8------------|
D#|--12\----------------------------------------------------------------------|

F#|-----------------7-------------10-------------7----------------------------|
C#|---------------9------------12------------9--------------------------------|
G#|----------7-10--------10-13----------7-10------------5--5--6---------------|
D#|--12\----------------------------------------------------------------------|


[Pre-Chorus]

F#|---------------------------------------------------------------------------|
C#|---------------------------------------------------------------------------|
G#|--9--9---9-7-9-10--9--9--------------9--9---9-7-9-10--9--9-----------------|
D#|--------------------------5----------------------------------5-------------|


[Chorus]

F#|---------------------------------------------------------------------------|
C#|-------7-----------14-12-------------------------------7-------------------|
G#|--7-10---9-----/14-------14----10---10----8---8---7-10---9----5--5---------|
D#|--------------------------------------------------------------------5------|

F#|---------------------------------------------------------------------------|
C#|-------7-----------14-12----------9---------9----------7-------------------|
G#|--7-10---9-----/14-------14----10---10----8---8---7-10---9----5--5---------|
D#|--------------------------------------------------------------------5------|


[Verse 2]

F#|---------------------------------------------------------------------------|
C#|---------------------------------------------------------------------------|
G#|---------------------------------------------------5--5--------------------|
D#|--12--12------15--15------13--13------12--12-------------6-----------------|

F#|-----------------7-------------10-------------7----------------------------|
C#|---------------9------------12------------9--------------------------------|
G#|----------7-10--------10-13----------7-10----------10--10--8--8------------|
D#|--12\----------------------------------------------------------------------|

F#|-----------------7-------------10-------------7----------------------------|
C#|---------------9------------12------------9--------------------------------|
G#|----------7-10--------10-13----------7-10------------5--5--6---------------|
D#|--12\----------------------------------------------------------------------|


[Pre-Chorus]

F#|---------------------------------------------------------------------------|
C#|---------------------------------------------------------------------------|
G#|--9--9---9-7-9-10--9--9--------------9--9---9-7-9-10--9--9-----------------|
D#|--------------------------5----------------------------------5-------------|


[Chorus 2]

F#|---------------------------------------------------------------------------|
C#|-------7-----------14-12-------------------------------7-------------------|
G#|--7-10---9-----/14-------14----10---10----8---8---7-10---9----5--5---------|
D#|--------------------------------------------------------------------5------|

F#|---------------------------------------------------------------------------|
C#|-------7-----------14-12----------9---------9----------7-------------------|
G#|--7-10---9-----/14-------14----10---10----8---8---7-10---9----5--5---------|
D#|--------------------------------------------------------------------5------|


[Post-Chorus]

I wanna go to Chicago

F#|---------------------------------------------------------------------------|
C#|---------------------------------------------------------------------------|
G#|--7-7-7-7-7-7-8-----7-7-7-7-7-7-5-----7-7-7-7-7-7-8------7-7-7-7-----------|
D#|-----------------------------------------------------------------5--5\-----|


[Solo Section]

Palm muted

F#|---------------------------------------------------------------------------|
C#|---------------------------------------------------------------------------|
G#|---------------------------------------------------5--5--------------------|
D#|--12--12------15--15------13--13------12--12-------------6-----------------|

Build up dynamically until Colin finishes rippin another solo

F#|---------------------------------------------------------------------------|
C#|---------------------------------------------------------------------------|
G#|---------------------------------------------------5--5------------|
D#|--12--12------15--15------13--13------12--12-------------6-----------------|

[Bass solo, if you want!] 


[Chorus 3]

F#|---------------------------------------------------------------------------|
C#|---------------------------------------------------------------------------|
G#|---------------------------------------------------------------------------|
D#|--12--12-------------------------------------------------------------------|


F#|---------------------------------------------------------------------------|
C#|-------7-----------14-12----------9---------9----------7-------------------|
G#|--7-10---9-----/14-------14----10---10----8---8---7-10---9----5--5---------|
D#|--------------------------------------------------------------------5------|


[Post Chorus/Outro]

I wanna go to Chicago

F#|---------------------------------------------------------------------------|
C#|---------------------------------------------------------------------------|
G#|--7-7-7-7-7-7-8-----7-7-7-7-7-7-5-----7-7-7-7-7-7-8------7-7-7-7-----------|
D#|-----------------------------------------------------------------5\--------|



************************************

| \  Slide down
| /  Slide up

************************************
Suggest correction
Give kudos to tab author, rate the tab!
1 2 3 4 5
comments
print report bad tab
guest
You may want to rate the tab now too:
select rating
Wanna post a correction for this tab? Suggest correction